Demonix(Metal)


PDA

View Full Version : Demonix(Metal)


Slayer0106
02-27-2009, 09:16 PM
Demonix
Lead Tuning: D-G#-C-F#-A#-d
Rhythm Tuning: D-G-C#-F-A-C#
Bass Tuning: C#-G#-C#-D
(all from low E to high e, left to right)

Intro
d |-----------------------------------------------------|
A# |-----------------------------------------------------|
F# |------------------------------6--5--4-----6--5--4-|
C |---6--5--3-----6--5--3----------------------------|
G# |-----------------------------------------------------|
D |0------------0-------------0-----------0-----------| X1


Chorus
d |----------------------------------|
A# |----------------------------------|
F# |----------------------------------|
C |----------------------------------|
G# |-0-0-3-0-0-5-3-0-0-3-5-3-1-|
D |-0-0-3-0-0-5-3-0-0-3-5-3-1-| X2

Intro Solo
d |-19-------18-19--------18-19--------18-|
A# |----16-17--------16-17--------16-17----|
F# |--------------------------------------------|
C |--------------------------------------------|
G# |--------------------------------------------|
D |--------------------------------------------| X4 All notes tremelo picked at rapid pace

Solo
d |-12-15-17-12-15-17-12-15-17-12-15-17-(16/)|
A# |-----------------------------------------------(16/)|
F# |-----------------------------------------------(15/)|
C |-----------------------------------------------------|
G# |-----------------------------------------------------|
D |-----------------------------------------------------| X4 Part in parenthesis last time only

d |----17/-17\-----17/-17\---|
A# |---16/---16\---16/---16\--|
F# |--15/-----15\-15/-----15\-|
C |-----------------------------|
G# |-----------------------------|
D |-----------------------------| X8 These notes are sweep picked.

Regression
02-27-2009, 09:23 PM
Put [ CODE] [ /CODE]

Those code tags around it, it will allign the tab properly. And I'm not sure you are allowed polls in T&C as it bumps the thread unnecessarily.

(take away the spaces in the code tags aswell, I had to put them so they would be visible)

Slayer0106
03-03-2009, 07:50 PM
That helped the tabs a lot, thnxs! :)