Heavy Song - Work in Progress


PDA

View Full Version : Heavy Song - Work in Progress


Element8923
07-16-2009, 11:49 AM
Invincible by my band, Syn

Please only comment if its to improve the song, please don't say it sucks or something like that.

Tuning low to high: DADGBE

h = hammer on
p = pull off
T = tap with other hand

intro

Lead
E-----------------------------------------------------------------------
B-----------------------------------------------------------------------
G----------------------------------------------------------------------- (x2)
D-----------------------------------------------------------------------
A-----------------------------------------------------------------------
D---0-0-7-7-8-8-0-0-8-8-7-7-0-0-7-7-8-8-5-5-7-7-3-3-5-5-
| ^all palm muted^
|
|Rhythym () = 2nd time only
|-------------------------------------(10)----
|-----------------------------------------------
|-----------------------------------------------
|-------------------------------------(12)----
|----------------------------------------------
|---0-0------------0-0------------0-0-------


Lead
E-----------------------------------------------------------------------
B-----------------------------------------------------------------------
G----------------------------------------------------------------------- (x2)
D-----------------------------------------------------------------------
A---0-0------------0-0-----------0-0---------------------------------
D---0-0-7-7-8-8-0-0-8-8-7-7-0-0-7-7-8-8-5-5-7-7-3-3-5-5-
| ^all palm muted except 0's^
|
|Rhythym
|-----------------------------------------
|-----------------------------------------
|-----------------------------------------
|-----------------------------------------
|---0-0------------0-0------------0-0--
|---0-0------------0-0------------0-0-

Main Riff

Lead
E-----------------------------------------------------------------------
B-----------------------------------------------------------------------
G----------------------------------------------------------------------- (x2)
D-----------------------------------------------------------------------
A---0-0-7-7-8-8-0-0-8-8-7-7-0-0-7-7-8-8-5-5-7-7-3-3-5-5-
D---0-0-7-7-8-8-0-0-8-8-7-7-0-0-7-7-8-8-5-5-7-7-3-3-5-5-
|
|
|Rhythym
|-----------------------------------------
|-----------------------------------------
|-----------------------------------------
|-----------------------------------------
|---0-0------------0-0------------0-0-
|---0-0------------0-0------------0-0-

Lead
E-----------------------------------------------------------------------
B-----------------------------------------------------------------------
G-----------------------------------------------------------------------
D--------7-7-8-8------8-8-7-7-------7-7-8-8-5-5-7-7-3-3-5-5- (x2)
A-----------------------------------------------------------------------
D---0-0-----------0-0------------0-0---------------------------------
|
|
|Rhythym
|-----------------------------------------
|-----------------------------------------
|-----------------------------------------
|-----------------------------------------
|---0-0------------0-0------------0-0-
|---0-0------------0-0------------0-0-

Main Riff

Chorus

Lead
E--------------------------------------------------------------------------------
B--------------------------------------------------------------------------------
G-------------------------------------------------------------------------------- (x3)
D--------------------------------------------------------------------------------
A---0-0-0--0-0--0---1-1-1--1-1--1---3-3-3--3-3--3---1-1-1--1-1---1-
D---0-0-0--0-0--0---1-1-1--1-1--1---3-3-3--3-3--3---1-1-1--1-1---1-
|
|
|Rhythym
|-----------------------------------------
|-------------------15-------------------
|-------------------17-------------------
|-----------------------------------------
|-----------------------------------------
|-----------------------------------------




Lead
E--------------------------------------------
B--------------------------------------------
G-------------------------------------------- (x5)
D--------------------------------------------
A---7-7-7-7-8-8-8-8-5-5-5-5-0-0-0-0-
D---7-7-7-7-8-8-8-8-5-5-5-5-0-0-0-0-
|
|
|Rhythym (starts on third time and continues)
|--------------------------------------------
|--------------------------------------------
|--------------------------------------------
|--------------------------------------------
|---7-7-7-7-8-8-8-8-5-5-5-5-0-0-0-0-
|---7-7-7-7-8-8-8-8-5-5-5-5-0-0-0-0-

[b]Chorus

Pre Solo

E----------------------
B---------------------
G---------------------
D--------------------- [x10]
A---0-0-0--0-0--0-
D---0-0-0--0-0--0-
|
|
|
|-----------------------
|-------------------15-
|-------------------17-
|-----------------------
|-----------------------
|-----------------------

Solo

E---------------------------------------------------------------------
B---------------------------------------------------------------------
G---------------------------------------------------------------------
D---------------------------------------------------------------------
A---12~-t19~-p12~-t20~-p12~-t22~-p12~-t20~-p12~-
D---------------------------------------------------------------------

E-----------------------
B-----------------------
G-----------------------
D---h15p12t19p12- (x4)
A-----------------------
D-----------------------

E-----------------------
B-----------------------
G-----------------------
D---h15p12t20p12- (x4)
A-----------------------
D-----------------------

E-----------------------
B-----------------------
G-----------------------
D---h15p12t22p12- (x4)
A-----------------------
D-----------------------

E-----------------------
B-----------------------
G-----------------------
D---h15p12t20p12- (x4)
A-----------------------
D-----------------------

E-------------------------------------------------------------------
B-------------------------------------------------------------------
G-------------------------------------------------------------------
D---t19~-p12~-t20~-p12~-t17~-p12~-t22~-p12~-----
A-----------------------------------------------------------------0-
D-----------------------------------------------------------------0-
dive bomb(the last note)^


Breakdown

Main Riff - with a cutout at the end, skipping the last note

creeping dave
07-16-2009, 12:36 PM
Do you have like a mp3 version of the song so we can listen to how it sounds?

pmeg568c
07-16-2009, 12:55 PM
that looks like it would sound pretty bad and horribly generic

Element8923
07-16-2009, 04:38 PM
No I do not have an mp3 version, sorry. And it doesn't actually sound bad, what makes you say that? - at least 20 people have told me it sounds good.

StewieSwan
07-16-2009, 07:52 PM
Hahaha. Without note duration and tempo we have no idea how it goes. And I agree completely with pmeg568c.

cptazad
07-16-2009, 11:26 PM
at least 20 people have told me it sounds good.


Then your friends listen to some pretty generic music, no offense man.

This song, overall, is generic and done to death (chord progressions/etc), but to each his own.

And Stewie is right, w/o note durations or a recorded mp3, this tab means nothing.

Element8923
07-17-2009, 10:25 PM
Basically lol...I guess I will try to upload something I recorded of it

And I also believe this is part of the area where you can post tabs you wrote? Idrk Im knew