I need help with this Tab please.


PDA

View Full Version : I need help with this Tab please.


DanOnBass
02-24-2011, 06:41 PM
Ok, so i'm looking for ideas, corrections, opinions, suggestions, on a new tab I wrote on my Bass. Any feedback, positive or negative is appreciated. Or if you want you can suggest different Keys/Chords I could use to help me with this bass line. The idea in the bass line is a Metal breakdown for a song we are working on right now. Let me know what you think. Thank you.









-------------------------------------------------------------------------------
Song Idea - Forever The Fire
-------------------------------------------------------------------------------

Tabbed By : Daniel Walter
e-mail: DanielWalter@live.com

Tuning: EADG

G|---------------------------------------------------------------------------|
D|------------14-14-12-12-10-10-12-12------------------------------|
A|-12* (x8)----------------------------------------------------------------|
E|---------------------------------------------------------------------------|

G|---------------------------------------------------------------------------|
D|------------14-14-12-12-10-10-12-12------------------------------|
A|-10* (x8)---------------------------------------------------------------|
E|---------------------------------------------------------------------------|

G|---------------------------------------------------------------------------|
D|-----------14-14-12-12-10-10-12-12-------------------------------|
A|-8* (x8)-----------------------------------------------------------------|
E|---------------------------------------------------------------------------|

G|---------------------------------------------------------------------------|
D|-----------10-10-12-12-14-14-12-12-------------------------------|
A|-7* (x8)-----------------------------------------------------------------|
E|---------------------------------------------------------------------------|



| / slide up
| \ slide down
| h hammer-on
| p pull-off
| ~ vibrato
| + harmonic
| x Mute note
===============================================================================

Like I said any feedback, whether positive/negative is greatly appreciated. Thank you. I would like to use something heavier, but I do not know which chords to use instead of the ones I have now.