Mode With Mode 'Dictionary'


PDA

View Full Version : Mode With Mode 'Dictionary'


slash_pwns
03-26-2005, 06:02 PM
MODES
________________________________________________________
If you find memorizing steps was too difficult, this is the
lesson for you! Modes are not put together with steps, but
by altering the major scale. The entire point of a mode is
to change scales to suit your needs.

A mode is just an alteration of a major scale.
Once you know your major scales, you can begin
to learn modes. Good knowledge of you fret board
and basic intervals is a must for modes. I will
go through how to make modes, as well as every mode
for every note (Ab, A, Bb, B, C, Db, D, Eb, E, F, Gb, G)
for easy reference.

________________________________________________________
Ionian- 1 2 3 4 5 6 7 1

Dorian- 1 2 b3 4 5 6 b7 1

Phrygian- 1 b2 b3 4 5 b6 b7 1

Lydian- 1 2 3 #4 5 6 7 1

Mixolydian- 1 2 3 4 5 6 b7 1

Aeolian- 1 2 b3 4 5 b6 b7 1

Locrian- 1 b2 b3 4 b5 b6 b7 1
________________________________________________________
Ionian- Ionian mode is just the name for the major scale.
It has no alterations made to it. Play this mode over
Major chords, Maj7, Maj6.

Dorian- Dorian mode has a flattened third and seventh (b3
and b7) making it ideal for m7 chords. You can also use
Dorian mode for m6 chords. Dorian mode is often used in
jazz styles.

Phrygian- Phrygian mode has a lowered second, third, sixth,
and seventh. Phrygian has a Spanish feel to it so you can
Play it over Spanish progressions or heavy metal/rock riffs
with a b2.

Lydian- Lydian mode's only alteration is a raised fourth (#4)
making it very close to the major scale. The #4 makes it a good
chord to use for Maj7#11 chords.

Mixolydian- The only alteration in Mixolydian mode is the lowered
seventh (b7). This makes it perfect for dominant 7th chords.
This mode can be used in blues, jazz or even country.

Aeolian- Aeolian mode, a.k.a. the minor scale has a b3, b6 and
b7. (All minor scales have a b3). Aeolian mode works over minor
chords, and can be used as a substitute for Dorian mode, by
using it over m7 and m6 chords.

Locrian- Locrian mode has a b2, b3, b5, b6 and b7. Locrian
mode is very dark sounding. It fits a m7b5 chord perfectly.

__________________________________________________________
MODE DICTIONARY

To find the mode you want press Ctrl+F, and then type the note,
and mode. (ex. C Ionian). Each entry has the name of the mode,
the notes that are found in it, and the TAB for it.

Legend
______
#= sharp
b= flat
bb= double flat


Ab Ionian (Ab Bb C Db Eb F G Ab)

|-----------------------------4----|
|-------------------------6-8------|
|-------------------5-6-8----------|
|-------------5-6-8----------------|
|-------4-6-8----------------------|
|-4-6-8----------------------------|

Ab Dorian (Ab Bb Cb Db Eb F Gb Ab)

|-----------------------------4----|
|-------------------------6-7------|
|-------------------4-6-8----------|
|-------------4-6-8----------------|
|-------4-6-8----------------------|
|-4-6-7----------------------------|

Ab Phrygian (Ab Bbb Cb Db Eb Fb Gb Ab)

|-----------------------------4----|
|-------------------------5-7------|
|-------------------4-6-8----------|
|-------------4-6-7----------------|
|-------4-6-7----------------------|
|-4-5-7----------------------------|

Ab Lydian (Ab Bb C D Eb F G Ab)

|-------------------------------4--|
|-------------------------5-7-8----|
|-------------------5-7-8----------|
|-------------5-6-8----------------|
|-------5-6-8----------------------|
|-4-6-8----------------------------|

Ab Mixolydian (Ab Bb C Db Eb F Gb Ab)

|-----------------------------4----|
|-------------------------6-7------|
|-------------------5-6-8----------|
|-------------4-6-8----------------|
|-------4-6-8----------------------|
|-4-6-8----------------------------|

Ab Aeloian (Ab Bb Cb Db Eb Fb Gb Ab)

|-----------------------------4----|
|-----------------------4-5-7------|
|-------------------4-6------------|
|-------------4-6-8----------------|
|-------4-6-7----------------------|
|-4-6-7----------------------------|

Ab Locrian (Ab Bbb Cb Db Ebb Fb Gb Ab)

|-----------------------------4----|
|-------------------------5-7------|
|-------------------4-6-7----------|
|-------------4-6-7----------------|
|-------4-5-7----------------------|
|-4-5-7----------------------------|

___________________________________

A Ionian (A B C# D E F# G# A)

|-----------------------------5----|
|-------------------------7-9------|
|-------------------6-7-9----------|
|-------------6-7-9----------------|
|-------5-7-9----------------------|
|-5-7-9----------------------------|

A Dorian (A B C D E F# G A)

|------------------------------5---|
|--------------------------7-8-----|
|--------------------5-7-9---------|
|-------------5-7--9---------------|
|-------5-7-9----------------------|
|-5-7-8----------------------------|

A Phrygian (A Bb C D E F G A)

|-----------------------------5----|
|-------------------------6-8------|
|-------------------5-7-9----------|
|-------------5-7-8----------------|
|-------5-7-8----------------------|
|-5-6-8----------------------------|

A Lydian (A B C# D# E F# G# A)

|-----------------------------5----|
|-------------------------7-9------|
|-------------------6-8-9----------|
|-------------6-7-9----------------|
|-------6-7-9----------------------|
|-5-7-9----------------------------|

A Mixolydian (A B C# D E F# G A)

|-----------------------------5----|
|-------------------------7-8------|
|-------------------6-7-9----------|
|-------------5-7-9----------------|
|-------5-7-9----------------------|
|-5-7-9----------------------------|

A Aeolian (A B C D E F G A)

|-----------------------------5----|
|-------------------------6-8------|
|-------------------5-7-9----------|
|-------------5-7-9----------------|
|-------5-7-8----------------------|
|-5-7-8----------------------------|

A Locrian (A Bb C D Eb F G A)

|-----------------------------5----|
|-------------------------6-8------|
|-------------------5-7-8----------|
|-------------5-7-8----------------|
|-------5-6-8----------------------|
|-5-6-8----------------------------|



NOTE: This is only Ab and A from the 'Dictionary' I have the other 10 notes aswell. If you would like me to post the rest i will, but to post the entire lesson will take 3 posts (26k + charactars)

LegendOfEmotron
03-26-2005, 07:13 PM
Really useful, please do post the others.

slash_pwns
03-26-2005, 07:29 PM
I'm going to submit it to columns/lessons. I have to get it approved. I think. I might put the rest up later.

Smitherz
03-26-2005, 08:00 PM
thats really good. but like thats just one part of the scale right? theres so many other notes, how are you going to show them all on tab? in box patterns?

fendermalmsteen
03-26-2005, 08:05 PM
I read it and I think I noticed something wrong, A Dorian and A Mixolydian say they have the same notes, but the scales are different... well, here:


A Dorian (A B C D E F# G A)

|------------------------------5---|
|--------------------------7-8-----|
|--------------------5-7-9---------|
|-------------5-7--9---------------|
|-------5-7-9----------------------|
|-5-7-8----------------------------|

A Mixolydian (A B C D E F# G A)

|-----------------------------5----|
|-------------------------7-8------|
|-------------------6-7-9----------|
|-------------5-7-9----------------|
|-------5-7-9----------------------|
|-5-7-9----------------------------|


Is it a typo, or am I just stupid?

slash_pwns
03-26-2005, 08:08 PM
Thank you. A mixolydian chould have C#

casualty01
03-26-2005, 08:09 PM
Originally posted by fendermalmsteen
I read it and I think I noticed something wrong, A Dorian and A Mixolydian say they have the same notes, but the scales are different... well, here:


A Dorian (A B C D E F# G A)

|------------------------------5---|
|--------------------------7-8-----|
|--------------------5-7-9---------|
|-------------5-7--9---------------|
|-------5-7-9----------------------|
|-5-7-8----------------------------|

A Mixolydian (A B C D E F# G A)

|-----------------------------5----|
|-------------------------7-8------|
|-------------------6-7-9----------|
|-------------5-7-9----------------|
|-------5-7-9----------------------|
|-5-7-9----------------------------|


Is it a typo, or am I just stupid?

typo... should be C#

also, those positionsare a bit whacky lol

Cas-:peace:

slash_pwns
03-26-2005, 08:10 PM
here is the rest of the 'dictionary'

slash_pwns
03-26-2005, 08:11 PM
Bb Ionian (Bb C D Eb F G A Bb)

|----------------------------------6-|
|-----------------------------8-10---|
|----------------------7-8-10--------|
|---------------7-8-10---------------|
|--------6-8-10----------------------|
|-6-8-10-----------------------------|

Bb Dorian (Bb C Db Eb F G Ab Bb)

|---------------------------------6--|
|-----------------------------8-9----|
|----------------------6-8-10--------|
|--------------6-8--10---------------|
|-------6-8-10-----------------------|
|-6-8-9------------------------------|

Bb Phrygian (Bb Cb Db Eb F Gb Ab Bb)

|-------------------------------6----|
|---------------------------7-9------|
|--------------------6-8-10----------|
|-------------6--8-9-----------------|
|-------6-8-9------------------------|
|-6-7-9------------------------------|

Bb Lydian (Bb C D E F G A Bb)

|----------------------------------6-|
|-----------------------------8-10---|
|----------------------7-9-10--------|
|---------------7-8-10---------------|
|--------7-8-10----------------------|
|-6-8-10-----------------------------|

Bb Mixolydian (Bb C D Eb F G Ab Bb)

|---------------------------------6--|
|-----------------------------8-9----|
|----------------------7-8-10--------|
|---------------6-8-10---------------|
|--------6-8-10----------------------|
|-6-8-10-----------------------------|

Bb Aeolian (Bb C Db Eb F Gb Ab Bb)

|-------------------------------6----|
|---------------------------7-9------|
|--------------------6-8-10----------|
|-------------6-8-10-----------------|
|-------6-8-9------------------------|
|-6-8-9------------------------------|

Bb Locrian (Bb Cb Db Eb Fb Gb Ab Bb)

|-----------------------------6------|
|-------------------------7-9--------|
|-------------------6-8-9------------|
|-------------6-8-9------------------|
|-------6-7-9------------------------|
|-6-7-9------------------------------|


___________________________________

B Ionian (B C# D# E F# G# A# B)

|----------------------------------7----|
|-----------------------------9-11------|
|----------------------8-9-11-----------|
|---------------8-9-11------------------|
|--------7-9-11-------------------------|
|-7-9-11--------------------------------|

B Dorian (B C# D E F# G# A B)

|-----------------------------------7---|
|------------------------------9-10-----|
|-----------------------7-9-11----------|
|---------------7-9--11-----------------|
|--------7-9-11-------------------------|
|-7-9-10--------------------------------|

B Phrygian (B C D E F# G A B)

|-----------------------------------7---|
|------------------------------8-10-----|
|-----------------------7-9-11----------|
|---------------7--9-10-----------------|
|--------7-9-10-------------------------|
|-7-8-10--------------------------------|

B Lydian (B C# D# E# F# G# A# B)

|-----------------------------------7---|
|------------------------------9-11-----|
|----------------------8-10-11----------|
|---------------8-9-11------------------|
|--------8-9-11-------------------------|
|-7-9-11--------------------------------|

B Mixolydian (B C# D# E F# G# A B)

|----------------------------------7----|
|-----------------------------9-10------|
|----------------------8-9-11-----------|
|---------------7-9-11------------------|
|--------7-9-11-------------------------|
|-7-9-11--------------------------------|

B Aeolian (B C# D E F# G A B)

|----------------------------------7----|
|-----------------------------8-10------|
|----------------------7-9-11-----------|
|---------------7-9-11------------------|
|--------7-9-10-------------------------|
|-7-9-10--------------------------------|

B Locrian (B C D E F G A B)

|----------------------------------7----|
|-----------------------------8-10------|
|----------------------7-9-10-----------|
|---------------7-9-10------------------|
|--------7-8-10-------------------------|
|-7-8-10--------------------------------|

___________________________________

C Ionian (C D E F G A B C)

|---------------------------------------8--|
|---------------------------------10-12----|
|-------------------------9-10-12----------|
|-----------------9-10-12------------------|
|---------8-10-12--------------------------|
|-8-10-12----------------------------------|

C Dorian (C D Eb F G A Bb C)

|----------------------------------------8-|
|----------------------------------10-11---|
|--------------------------8-10-12---------|
|-----------------8-10--12-----------------|
|---------8-10-12--------------------------|
|-8-10-11----------------------------------|

C Phrygian (C Db Eb F G Ab Bb C)

|--------------------------------------8---|
|---------------------------------9-11-----|
|-------------------------8-10-12----------|
|----------------8--10-11------------------|
|--------8-10-11---------------------------|
|-8-9-11-----------------------------------|

C Lydian (C D E F# G A B C)

|---------------------------------------8--|
|---------------------------------10-12----|
|-------------------------9-11-12----------|
|-----------------9-10-12------------------|
|---------9-10-12--------------------------|
|-8-10-12----------------------------------|

C Mixolydian (C D E F G A Bb C)

|---------------------------------------8--|
|---------------------------------10-11----|
|-------------------------9-10-12----------|
|-----------------8-10-12------------------|
|---------8-10-12--------------------------|
|-8-10-12----------------------------------|

C Aeolian (C D Eb F G Ab Bb C)

|--------------------------------------8---|
|---------------------------------9-11-----|
|-------------------------8-10-12----------|
|-----------------8-10-12------------------|
|---------8-10-11--------------------------|
|-8-10-11----------------------------------|

C Locrian (C Db Eb F Gb Ab Bb C)

|------------------------------------8-----|
|-------------------------------9-11-------|
|-----------------------8-10-11------------|
|---------------8-10-11--------------------|
|--------8-9-11----------------------------|
|-8-9-11-----------------------------------|

________________________________________

Db Ionian (Db Eb F Gb Ab Bb C Db)

|-----------------------------------------9--|
|-----------------------------------11-13----|
|--------------------------10-11-13----------|
|-----------------10-11-13-------------------|
|---------9-11-13----------------------------|
|-9-11-13------------------------------------|

Db Dorian (Db Eb Fb Gb Ab Bb Cb Db)

|----------------------------------------9---|
|----------------------------------11-12-----|
|--------------------------9-11-13-----------|
|-----------------9-11--13-------------------|
|---------9-11-13----------------------------|
|-9-11-12------------------------------------|

Db Phrygian (Db Ebb Fb Gb Ab Bbb Cb Db)

|----------------------------------------9---|
|----------------------------------10-12-----|
|--------------------------9-11-13-----------|
|-----------------9--11-12-------------------|
|---------9-11-12----------------------------|
|-9-10-12------------------------------------|

Db Lydian (Db Eb F G Ab Bb C Db)

|------------------------------------------9-|
|------------------------------------11-13---|
|---------------------------10-12-13---------|
|------------------10-11-13------------------|
|---------10-11-13---------------------------|
|-9-11-13------------------------------------|

Db Mixolydian (Db Eb F Gb Ab Bb Cb Db)

|----------------------------------------9---|
|----------------------------------11-12-----|
|-------------------------10-11-13-----------|
|-----------------9-11-13--------------------|
|---------9-11-13----------------------------|
|-9-11-13------------------------------------|

Db Aeolian (Db Eb Fb Gb Ab Bbb Cb Db)

|---------------------------------------9----|
|---------------------------------10-12------|
|-------------------------9-11-13------------|
|-----------------9-11-13--------------------|
|---------9-11-12----------------------------|
|-9-11-12------------------------------------|

Db Locrian (Db Ebb Fb Gb Abb Bbb Cb Db)

|---------------------------------------9----|
|---------------------------------10-12------|
|-------------------------9-11-12------------|
|-----------------9-11-12--------------------|
|---------9-10-12----------------------------|
|-9-10-12------------------------------------|

__________________________________________

D Ionian (D E F# G A B C# D)

|-------------------------------------------10----|
|-------------------------------------12-14-------|
|----------------------------11-12-14-------------|
|-------------------11-12-14----------------------|
|----------10-12-14-------------------------------|
|-10-12-14----------------------------------------|

D Dorian (D E F G A B C D)

|--------------------------------------------10---|
|--------------------------------------12-13------|
|-----------------------------10-12-14------------|
|-------------------10-12--14---------------------|
|----------10-12-14-------------------------------|
|-10-12-13----------------------------------------|

D Phrygian (D Eb F G A Bb C D)

|--------------------------------------------10---|
|--------------------------------------11-13------|
|-----------------------------10-12-14------------|
|-------------------10--12-13---------------------|
|----------10-12-13-------------------------------|
|-10-11-13----------------------------------------|

slash_pwns
03-26-2005, 08:12 PM
D Lydian (D E F# G# A B C# D)

|-------------------------------------------10----|
|-------------------------------------12-14-------|
|----------------------------11-13-14-------------|
|-------------------11-12-14----------------------|
|----------11-12-14-------------------------------|
|-10-12-14----------------------------------------|

D Mixolydian (D E F# G A B C D)

|-------------------------------------------10----|
|-------------------------------------12-13-------|
|----------------------------11-12-14-------------|
|-------------------10-12-14----------------------|
|----------10-12-14-------------------------------|
|-10-12-14----------------------------------------|

D Aeolian (D E F G A Bb C D)

|-------------------------------------------10----|
|-------------------------------------11-13-------|
|----------------------------10-12-14-------------|
|-------------------10-12-14----------------------|
|----------10-12-13-------------------------------|
|-10-12-13----------------------------------------|

D Locrian (D Eb F G Ab Bb C D)

|-------------------------------------------10----|
|-------------------------------------11-13-------|
|----------------------------10-12-13-------------|
|-------------------10-12-13----------------------|
|----------10-11-13-------------------------------|
|-10-11-13----------------------------------------|

_______________________________________________

Eb Ionian (Eb F G Ab Bb C D Eb)

|-------------------------------------------11----|
|-------------------------------------13-15-------|
|----------------------------12-13-15-------------|
|-------------------12-13-15----------------------|
|----------11-13-15-------------------------------|
|-11-13-15----------------------------------------|

Eb Dorian (Eb F Gb Ab Bb C Db Eb)

|--------------------------------------------11---|
|--------------------------------------13-14------|
|-----------------------------11-13-15------------|
|-------------------11-13--15---------------------|
|----------11-13-15-------------------------------|
|-11-13-14----------------------------------------|

Eb Phrygian (Eb Fb Gb Ab Bb Cb Db Eb)

|--------------------------------------------11---|
|--------------------------------------12-14------|
|-----------------------------11-13-15------------|
|-------------------11--13-14---------------------|
|----------11-13-14-------------------------------|
|-11-12-14----------------------------------------|

Eb Lydian (Eb F G A Bb C D Eb)

|-------------------------------------------11----|
|-------------------------------------13-15-------|
|----------------------------12-14-15-------------|
|-------------------12-13-15----------------------|
|----------12-13-15-------------------------------|
|-11-13-15----------------------------------------|

Eb Mixolydian (Eb F G Ab Bb C Db Eb)

|-------------------------------------------11----|
|-------------------------------------13-14-------|
|----------------------------12-13-15-------------|
|-------------------11-13-15----------------------|
|----------11-13-15-------------------------------|
|-11-13-15----------------------------------------|

Eb Aeolian (Eb F Gb Ab Bb Cb Db Eb)

|-------------------------------------------11----|
|-------------------------------------12-14-------|
|----------------------------11-13-15-------------|
|-------------------11-13-15----------------------|
|----------11-13-14-------------------------------|
|-11-13-14----------------------------------------|

Eb Locrian (Eb Fb Gb Ab Bbb Cb Db Eb)

|-------------------------------------------11----|
|-------------------------------------12-14-------|
|----------------------------11-13-14-------------|
|-------------------11-13-14----------------------|
|----------11-12-14-------------------------------|
|-11-12-14----------------------------------------|

________________________________________________
(These modes can alteritively play 12 frets (1
Octave up the fretboard)

E Ionaian (E F# G# A B C# D# E)

|-----------------------------0----|
|-------------------------2-4------|
|-------------------1-2-4----------|
|-------------1-2-4----------------|
|-------0-2-4----------------------|
|-0-2-4----------------------------|

E Dorian (E F# G A B C# D E)

|------------------------------0---|
|--------------------------2-3-----|
|--------------------0-2-4---------|
|-------------0-2--4---------------|
|-------0-2-4----------------------|
|-0-2-3----------------------------|

E Phrygian (E F G A B C D E)

|------------------------------0---|
|--------------------------1-3-----|
|--------------------0-2-4---------|
|-------------0--2-3---------------|
|-------0-2-3----------------------|
|-0-1-3----------------------------|

E Lydian (E F# G# A# B C# D# E)

|-----------------------------0----|
|-------------------------2-4------|
|-------------------1-3-4----------|
|-------------1-2-4----------------|
|-------1-2-4----------------------|
|-0-2-4----------------------------|

E Mixolydian (E F# G# A B C# D E)

|-----------------------------0----|
|-------------------------2-3------|
|-------------------1-2-4----------|
|-------------0-2-4----------------|
|-------0-2-4----------------------|
|-0-2-4----------------------------|

E Aeolian (E F# G A B C D E)

|-----------------------------0----|
|-------------------------1-3------|
|-------------------0-2-4----------|
|-------------0-2-4----------------|
|-------0-2-3----------------------|
|-0-2-3----------------------------|

E Locrian (E F G A Bb C D E)

|-----------------------------0----|
|-------------------------1-3------|
|-------------------0-2-3----------|
|-------------0-2-3----------------|
|-------0-1-3----------------------|
|-0-1-3----------------------------|

___________________________________
(These modes can alteritively play 12 frets (1
Octave up the fretboard)

F Ionian (F G A Bb C D E F)

|-----------------------------1----|
|-------------------------3-5------|
|-------------------2-3-5----------|
|-------------2-3-5----------------|
|-------1-3-5----------------------|
|-1-3-5----------------------------|

F Dorian (F G Ab Bb C D Eb F)

|------------------------------1---|
|--------------------------3-4-----|
|--------------------1-3-5---------|
|-------------1-3--5---------------|
|-------1-3-5----------------------|
|-1-3-4----------------------------|

F Phrygian (F Gb Ab Bb C Db Eb F)

|------------------------------1---|
|--------------------------2-4-----|
|--------------------1-3-5---------|
|-------------1--3-4---------------|
|-------1-3-4----------------------|
|-1-2-4----------------------------|

F Lydian (F G A B C D E F)

|-----------------------------1----|
|-------------------------3-5------|
|-------------------2-4-5----------|
|-------------2-3-5----------------|
|-------2-3-5----------------------|
|-1-3-5----------------------------|

F Mixolydian (F G A Bb C D Eb F)

|-----------------------------1----|
|-------------------------3-4------|
|-------------------2-3-5----------|
|-------------1-3-5----------------|
|-------1-3-5----------------------|
|-1-3-5----------------------------|

F Aeolian (F G Ab Bb C Db Eb F)

|-----------------------------1----|
|-------------------------2-4------|
|-------------------1-3-5----------|
|-------------1-3-5----------------|
|-------1-3-4----------------------|
|-1-3-4----------------------------|

F Locrian (F Gb Ab Bb Cb Db Eb F)

|-----------------------------1----|
|-------------------------2-4------|
|-------------------1-3-4----------|
|-------------1-3-4----------------|
|-------1-2-4----------------------|
|-1-2-4----------------------------|

__________________________________
(These modes can alteritively play 12 frets (1
Octave up the fretboard)

Gb Ionian (Gb Ab Bb Cb Db Eb F Gb)

|-----------------------------2----|
|-------------------------4-6------|
|-------------------3-4-6----------|
|-------------3-4-6----------------|
|-------2-4-6----------------------|
|-2-4-6----------------------------|

Gb Dorian (Gb Ab Bbb Cb Db Eb Fb Gb)

|-----------------------------2----|
|-------------------------4-5------|
|-------------------2-4-6----------|
|-------------2-4-6----------------|
|-------2-4-6----------------------|
|-2-4-5----------------------------|

Gb Phrygian (Gb Abb Bbb Cb Db Ebb Fb Gb)

|-----------------------------2----|
|-------------------------3-5------|
|-------------------2-4-6----------|
|-------------2-4-5----------------|
|-------2-4-5----------------------|
|-2-3-5----------------------------|

Gb Lydian (Gb Ab Bb C Db Eb F Gb)

|-----------------------------2----|
|-------------------------4-6------|
|-------------------3-5-6----------|
|-------------3-4-6----------------|
|-------3-4-6----------------------|
|-2-4-6----------------------------|

Gb Mixolydian (Gb Ab Bb Cb Db Eb Fb Gb)

|-----------------------------2----|
|-------------------------4-5------|
|-------------------3-4-6----------|
|-------------2-4-6----------------|
|-------2-4-6----------------------|
|-2-4-6----------------------------|

Gb Aeolian (Gb Ab Bbb Cb Db Ebb Fb Gb)

|-----------------------------2----|
|-------------------------3-5------|
|-------------------2-4-6----------|
|-------------2-4-6----------------|
|-------2-4-5----------------------|
|-2-4-5----------------------------|

Gb Locrian (Gb Abb Bbb Cb Dbb Ebb Fb Gb)

|-----------------------------2----|
|-------------------------3-5------|
|-------------------2-4-5----------|
|-------------2-4-5----------------|
|-------2-3-5----------------------|
|-2-3-5----------------------------|

__________________________________

slash_pwns
03-26-2005, 08:13 PM
(These modes can alteritively play 12 frets (1
Octave up the fretboard)

G Ionian (G A B C D E F# G)

|-----------------------------3----|
|-------------------------5-7------|
|-------------------4-5-7----------|
|-------------4-5-7----------------|
|-------3-5-7----------------------|
|-3-5-7----------------------------|

G Dorian (G A Bb C D E F G)

|------------------------------3---|
|--------------------------5-6-----|
|--------------------3-5-7---------|
|-------------3-5--7---------------|
|-------3-5-7----------------------|
|-3-5-6----------------------------|

G Phrygian (G Ab Bb C D Eb F G)

|------------------------------3---|
|--------------------------4-6-----|
|--------------------3-5-7---------|
|-------------3--5-6---------------|
|-------3-5-6----------------------|
|-3-4-6----------------------------|

G Lydian (G A B C# D E F# G)

|-----------------------------3----|
|-------------------------5-7------|
|-------------------4-6-7----------|
|-------------4-5-7----------------|
|-------4-5-7----------------------|
|-3-5-7----------------------------|

G Mixolydian (G A B C D E F G)

|-----------------------------3----|
|-------------------------5-6------|
|-------------------4-5-7----------|
|-------------3-5-7----------------|
|-------3-5-7----------------------|
|-3-5-7----------------------------|

G Aeolian (G A Bb C D Eb F G)

|-----------------------------3----|
|-------------------------4-6------|
|-------------------3-5-7----------|
|-------------3-5-7----------------|
|-------3-5-6----------------------|
|-3-5-6----------------------------|

G Locrian (G Ab Bb C Db Eb F G)

|-----------------------------3----|
|-------------------------4-6------|
|-------------------3-5-6----------|
|-------------3-5-6----------------|
|-------3-4-6----------------------|
|-3-4-6----------------------------|


And thats it.

In total that was 4 posts... Ha

slash_pwns
03-26-2005, 08:15 PM
Originally posted by casualty01
typo... should be C#

also, those positionsare a bit whacky lol

Cas-:peace:

Positions are just suggestions, I have abnormally large hands :P

I changed C to C#, and posted the 'dictionary'

have fun:D

fendermalmsteen
03-26-2005, 08:18 PM
Originally posted by casualty01
typo... should be C#

also, those positionsare a bit whacky lol

Cas-:peace: I thought so.

casualty01
03-26-2005, 08:19 PM
Originally posted by slash_pwns
Positions are just suggestions, I have abnormally large hands :P

I changed C to C#, and posted the 'dictionary'

have fun:D

nah man, I didn't mean the stretches, the stretches are nothing out of the ordinary. I just meant stoping on the 2nd octave and not completing the position on the high E.

Cas-:peace:

slash_pwns
03-26-2005, 09:56 PM
Yes, but:

(These modes can alteritively play 12 frets (1
Octave up the fretboard)

casualty01
03-26-2005, 10:16 PM
lol.... i know, but that's still the same shape without completion on the high E string ;) i'm just talking positional range here.

Cas-:peace:

slash_pwns
03-26-2005, 10:20 PM
sorry to be confused... but i'm confused...

I have 15 notes in each scale, starting on the root, with a root in the middle, and a root on the end. I could end with 2 more notes, but i thoguht it would be best to end with a root.

Does that make sense? I dont know if i answered your question.

slash_pwns
03-26-2005, 11:53 PM
So, If that was the only mistake I guess thats the good copy ready for *approval*

slash_620
03-27-2005, 07:40 AM
^i'm not sure about this,but i think you can get modes from other scales not just the major scale.

good article.

Rankles
03-27-2005, 10:12 AM
Since it's been confirmed as correct and useful, I see nor eason why this shouldn't become a lesson.

*APPROVED*

slash_pwns
03-27-2005, 11:43 AM
do I submit it now or has it been already?

ctb
03-27-2005, 03:00 PM
In total that was 4 posts... Ha

And 4 brilliant ones they were! good job :cheers:

slash_pwns
03-27-2005, 03:24 PM
Thanks alot, I just dont know if its been sent in by a mod, or if i have to submit it.

slash_620
03-27-2005, 03:44 PM
^you submit it.

slash_pwns
03-27-2005, 04:12 PM
Ok thanks.

high voltage
03-27-2005, 06:05 PM
Yup, it was approved on page one by Rankles.

:cheers: