[GP4 & Code] acoustic song


PDA

View Full Version : [GP4 & Code] acoustic song


andytheminstrel
10-20-2005, 08:41 PM
It's a ballad, vocal melody is very similiar to guitar track.
Here's it in ASCII Tab:

E||-----------2-------------|----------2-------------|
B||-----------------3-------|----------------3-------|
G||*-------2-----2-------2--|-------2-----2-------2--|
D||*--0---------------------|--0---------------------|
A||-------------------------|------------------------|
E||-------------------------|------------------------|

----------2-------------|----------2-------------|
----------------3-------|----------------3-------|
-------0-----0-------0--|-------0-----0-------0--| x2
--2---------------------|--2---------------------|
------------------------|------------------------|
------------------------|------------------------|

---------------------0--|----------------0-------|
----------------3-------|---------------------3--|
----------0-------------|----------0-------------|
-------2-----2----------|-------0-----0----------|
--3---------------------|--2---------------------|
------------------------|------------------------|

------------------------|--3-------2------0------|
-------------------3----|-----3------3-----------|
---------------0--------|--------0-----0--------*|
---------0--------------|-----------------------*|
------2-----2-----------|------------------------|
--3---------------------|------------------------|



--------------------------|--------------------------|
--3----3--3-3-3-3-3--3----|--3----3--3-3-3-3-3--3----|
--0----0--0-0-0-0-0--0----|--0----0--0-0-0-0-0--0----|
--2----2--2-2-2-2-2--2----|--0----0--0-0-0-0-0--0----|
--3----3--3-3-3-3-3--3----|--2----2--2-2-2-2-2--2----|
--------------------------|--------------------------|



--3----3--3-3-3-3-3--3----|--3----3--2----2--0----||
--3----3--3-3-3-3-3--3----|--3----3--3----3--3----||
--0----0--0-0-0-0-0--0----|--0----0--0----0--0----||
--0----0--0-0-0-0-0--0----|-----------------------||
--2----2--2-2-2-2-2--2----|-----------------------||
--3----3--3-3-3-3-3--3----|-----------------------||

Here's GP4 file, it's not quite right (there is slightly difference with this ASCII one), but you can understand rhytm using GTP file. (Never mind about chords part, I am not able to transcribe chords in GTP well).

acrocks
11-02-2005, 03:15 PM
very very very nice it sounds well if finger picked and played slowly, yeah love pointing out the obvious. like the way you have arpegiated suspended chords and how you've used different variations of the d chord.

couple of things is that i don't think you should play the second line twice becomes dull quite quickly. i also think that on the 3rd line, second bar you should arpegiate an e minor chord instead. another thing is that when you are strumming the csus4th chord i think you should play the high e string, think it gives a better sound

very nice check out mine? http://www.ultimate-guitar.com/forum/showthread.php?t=276457

groove
11-03-2005, 01:12 PM
wow this is very good!! realy i like it alot! nice work !

S2-GreenDay-S2
11-07-2005, 09:55 PM
Really nice. All the notes and chords really seemed to fit together well. Wouldnt change a thing.

antonis273
11-20-2005, 02:20 AM
where is the gp4? :eek: