this is fantastic!


View Full Version : this is fantastic!

10-23-2005, 03:36 PM
e | ------------------------------------------------------------------------------------------------------------
b | --1-----------1-------|--1------------1--------|--0------------0---------3--------1--------0~--------------
g | ---------2----------2-|---------0------------0-|---------1-----------1------1--------1---------------------
d | ------2----------2----|------2------------2----|------2-----------2------------2--------2------------------ 2X
a | --0--------0----------|--3---------3-----------|--2---------2----------------------------------------------
e | ----------------------|------------------------|------------------------------------------------------------

e | --2-----------2-------|-3-----------3----------|--0------------0-----------|--2---------------2-------------------
b | --------3-----------3-|--------3-----------3---|----------3-------------3---|------------3--------------3-----------
g | -----2-----------2----|-----2-----------2------|-------2------------2-------|--------2--------------2---------------
d | --0--------0----------|-0---------0-----------|---0---------0--------------|---0------------0--------------------- 2X
a | ----------------------|------------------------|----------------------------|----------------------------------
e | ----------------------|------------------------|----------------------------|----------------------------------

e | ---0--------------0---------|---3------------3----------|---1--------------1------------------------------------------
b | -----------1-------------1--|----------1------------1---|-----------1-------------1------------------------------------
g | --------2-------------2-----|-------2-----------2-------|-------2-------------2----------------------------------------
d | ---3-----------3------------|---3---------3-------------|---3-----------3---------------------------------------------- 2X
a | ----------------------------|---------------------------|----------------------------------------------------------
e | ----------------------------|---------------------------|----------------------------------------------------------

Tell me what you think, i think it is great! i will record it later!

10-23-2005, 04:02 PM
looks pretty good.

10-23-2005, 04:31 PM
looks alright, nothing original though

10-25-2005, 03:13 PM
some notes were off

10-25-2005, 06:36 PM
not very unique. more of a warm-up than anything

10-25-2005, 11:44 PM
sounded kind of like dust in the wind but thats just me...

10-26-2005, 12:01 AM
sounded kind of like dust in the wind but thats just me...
thats exactly what i was thinkin;
it really is almost the same

10-26-2005, 11:22 PM
ya, its ok. the other guys pretty much covered it.

crit mine?

10-28-2005, 02:40 PM
i like the idea. unfortunately, it's already been used. it sounds too much like "dust in the wind" by kansas. the chord progression is not very creative, and it doesn't really sound good. i will give you this: the third (and fourth) measures of the first line were pretty good.

10-29-2005, 07:22 AM
i thought the first bit sounded like a part out of classical gas, it seems ok, nothing completely original but i would like to hear how you play it

10-29-2005, 10:44 AM
i have recorded it but its a .amr file so you cant open it, do you gus know how i can transform it to wma or mp3 ?

11-05-2005, 12:14 PM
ok hehe uhm...i record this with my mobile so the sound is a little bit crapy, but this is the way you should play the song. enjoy!


11-07-2005, 05:46 PM
looks/sounds like many songs by 3 doors down