[Tab] Little soothing song


PDA

View Full Version : [Tab] Little soothing song


SouthernRoCkGoD
11-05-2005, 05:10 AM
intro / verse

|--------3-----------2---------------0-----------------------
|----------0-------3---3---3-------1---1--------1-------
|------------0-0h2-------2---0h2-2-------2--------0---0-
|------0-------0-------------0h2--------------2-----2---
|----2-------------------------------------0h3------------
|-0h3--------------------------------------------------------------

bridge

|---------------------------------------------8-5-----------------
|---------------------------------------5---------8---------------
|-------------------12----------------5---5---------7br-5--------
|----------------12----12----12-----5-------5-------------7-5---
|----------12h14----------14----5h7--------------------------------
|-0h3*-/15-----------------------------------------------------------------

h = hammer on
/ = slide
br = bend and release
* = let ring
pattern just goes intro verse birdge verse
hope ya like it tell me what you think

acrocks
11-05-2005, 07:08 AM
ah rock god no matter how many good riffs you come up with you still have to follow the rules only 2 tabs one week and i count three from you

SouthernRoCkGoD
11-05-2005, 08:23 AM
this is second, that solo was from like the week b4 someone bumped it though ~_~

burning_aura
11-06-2005, 12:39 PM
first part's like knockin on heavens door lol!