New Riff


PDA

View Full Version : New Riff


dethhead
11-06-2005, 03:51 PM
This is a sort of funny sounding riff. It feels kind of weird to play all the way through.


E:---------------------|-----------------------|-------------|--------------|
B:---------------------|-----------------------|-------------|--------------|
G:---------------------|-----------------------|-------------|--------------|
D:----------------2----|--4---------------4----|--6----------|--4-----------|
A:-------1----2--------|-------5-----5---------|--7--777777--|--5--555-432--|
E:--0-0----0---0----0--|----0-----0----0----0--|--0--000000--|--0--000------|

E:--------------------|-------------------------|-------------|--------------|
B:--------------------|-------------------------|-------------|--------------|
G:--------------------|-------------------------|-------------|--------------|
D:--------------------|--2------4---------4-----|--6----------|--4-----------|
A:--1-------1-----2---|--------------5----------|--7--777777--|--5--555-432--|
E:-----0-0----0----0--|----0------0-----0----0--|--0--000000--|--0--000------|

E:---------------------|-----------------------|-------------|--------------|
B:---------------------|-----------------------|-------------|--------------|
G:---------------------|-----------------------|-------------|--------------|
D:----------------2----|--4---------------4----|--6----------|--4-----------|
A:-------1----2--------|-------5-----5---------|--7--777777--|--5--555-432--|
E:--0-0----0---0----0--|----0-----0----0----0--|--0--000000--|--0--000------|

E:--------------------|-------------------------|-------------|--------------|
B:--------------------|-------------------------|-------------|--------------|
G:--------------------|-------------------------|-------------|--------------|
D:--------------------|--2------4---------4-----|--6----------|--4-----------|
A:--1-------1-----2---|--------------5----------|--7--777777--|--5--555-432--|
E:-----0-0----0----0--|----0------0-----0----0--|--0--000000--|--0--000------|

ctb
11-06-2005, 03:56 PM
'Tis good, me like alot.

crazee201
11-27-2005, 01:01 AM
its good, but the 0-0's are kinda over used, but if its muted on elcetric, it'll sounds ok