She - Wolf Style Riff


PDA

View Full Version : She - Wolf Style Riff


DeepSilentGhost
11-07-2005, 01:03 PM
i was messin around on my friends acoustic, and i came up with this little neat riff, it supposed to be played with distortion though.
And it aint the greatest, i did it in like like a minute, just let me know what ya think.

Dist.
|--------------------------------------------------------------------------
|--------------------------------------------------------------------------
|---------------------------------------------9------------------------9/7-
|---------------------------------------------7------------------------7/5-
|--------------------------------------------------------------------------
|-0-000-0-000-0-000-000-0-000-0-000-0-000-000----0-000-0-000-0-000-000-----
* *** * *** * *** *** * *** * *** * *** *** * *** * *** * *** ***
Clean
|-----------------------------------------------------------------------------x--|---------
|-----------------------------------------------------------------------------x--|-------5-
|-----------------------7/3-----------------------3/5-------------------------x--|-----7---
|-----------------------5/1-----------------------1/3-----------------------2-x--|---9-----
|---------------------------------------------------------------------------2-x--|-0-------
|-0-000-0-000-0-000-000-----0-000-0-000-0-000-000-----0-000-0-000-0-000-000-0-x--|---------
* *** * *** * *** *** * *** * *** * *** *** * *** * *** * *** ***

badnflunz
11-07-2005, 09:21 PM
i didnt really like it till the VERY last riff
that was pretty neat
but for uno minute
not bad

S2-GreenDay-S2
11-07-2005, 09:40 PM
Thats was horrible. Too repetetive and boring. Try to mix it up more, you used like 10 notes.