[TAB] new tab, its been while snice my last one


PDA

View Full Version : [TAB] new tab, its been while snice my last one


badnflunz
11-07-2005, 09:40 PM
something i came up in like 2 min
crit plz

e|------------------------------------------------------------------------------------------|
B|---------------------------------------------------------------------------------------------|
G|---------------------------------------------------------------------------------------|
D|----2h3p2h---------------------------------------------------------------------------------|
A|--0-----------3h2p~-------3-2-3-5-3-2----------5--3-5-7--5--3-------7-5-8-7-5--7---------|
E|-----------------------1---------------------3--------------------5------------5-----------|

Shred 'n Smile
11-07-2005, 09:48 PM
Yeah, sounds okay. The way I play the beginning reminds me of a Spanish, flamenco sounding sound. Not bad for two minutes. lol. :D

S2-GreenDay-S2
11-07-2005, 09:49 PM
Simple, but nice. 8/10 Only thing I would change is the last powerchord. Instead of playing that, I would play 7 on the A string, then play 3 on the A string.

badnflunz
11-07-2005, 10:06 PM
S2-GreenDay-S2, do you have any tabs on here? i couldnt find any

les_paul_01
11-08-2005, 01:59 AM
i found that playing a g powerchord at the end sounded better to me than an a. nonetheless its really good, perhaps you could put it into powertab and turn it into a whole song? nice work.

phpn00bf4life
11-08-2005, 11:38 AM
Really good. I agree, G power chord.
You should turn it into a whole song. (By the way I like the powerchord, i say keep it.)
Other than that good song, I like the whole thing, especially if it was made in two minutes!
Cuz it's so short that's really all i can say.
Crit for crit? http://www.ultimate-guitar.com/forum/showthread.php?t=278062

badnflunz
11-09-2005, 12:36 AM
i did it on power tab
but
im too lazy to post it

humanpowerchord
11-09-2005, 09:22 AM
Nice. Not bad for only 2 minutes. But instead of that power chord at the end i would do this
D--------------------
A--7------5---------
E----8~----7~-----

Then do into a chord progression using A to C to B

humanpowerchord
11-09-2005, 09:23 AM
*go

humanpowerchord
11-09-2005, 09:29 AM
The A-C-B chords should be
e--0---0---0--------------------
B--1---1---0--------------------
G--2---0---4--------------------
D--2---2---4--------------------
A--0---3---2--------------------
E---------------------------------

badnflunz
11-11-2005, 08:29 PM
that sounds funky..........

punk||conformed
11-12-2005, 11:57 AM
I liked it, the begining sounded very Black Sabbath, but it got airy near the end, giving me a unique feeling of hope coming back then being crushed again. Very good. I like the power chord ending, short and simple. A drawn out ending doesn't suit the mood of it. Very nice. Crit for Crit maybe?

Pure_Morning
11-12-2005, 04:30 PM
I like it. Except for the end (instead of a powerchord):



A ----3h5p3---0------




Works quite well.

Good riff,

PureMorning

badnflunz
11-15-2005, 09:46 PM
maybe i could play that then the power chord

xdespairfactor
11-15-2005, 09:58 PM
Generic.

NovemberRain273
11-16-2005, 12:19 AM
nice song, the others pretty much summed up all there is to say. nice work

crit mine plz?
http://www.ultimate-guitar.com/forum/showthread.php?t=281746

badnflunz
11-17-2005, 11:55 PM
i came up with an "improved" version
ill post 2morrow
and what does generic mean

Backwards_Logic
11-18-2005, 01:47 PM
It's very good. I like this one. Very strange when played slow (in a good way :D) I took the liberty of posting the beginning bit, which is how I play it. Seems to me to sound fuller.


e|------------------------------------------------|
B|------------------------------------------------|
G|------------------------------------------------|
D|----2h3p2------------2h3p2----------------------|
A|--0--------2------0---------2------3p2-2~-------|
E|-------------1-3--------------1-----------------|

badnflunz
11-19-2005, 10:15 PM
that sounds pretty good ^

SsPunk
11-20-2005, 12:33 PM
Generically, a sacriligeous epithet.

badnflunz
11-24-2005, 01:31 PM
once again
whats GENERIC and "a sacriligeous epithet"
id look it up but im lazy