fingerpicked riff


PDA

View Full Version : fingerpicked riff


HIMKTR3000
11-08-2005, 09:17 PM
ive been thinkin about making this into a song and i jusst wanted to make sure it sounded good. CRIT please

|--------------------------------------------------|
|---3---3----3----3----3---3----3----3---------|
|----2---2----2----2----2----2----2----2--------|
|-0---0--------------------------------------------|
|-----------3----3--------------3----3-----------|
|----------------------1----1----------------------|

chrispozzobon
11-08-2005, 09:31 PM
Hmm... it sounds realllly good, don't get me wrong, but it sounds like a song.. but I can't figure out what song...

rearFender
11-08-2005, 09:32 PM
I find it difficult to Crit considering it's in tab, meaning finding the rhythm for this is almost impossible. However, I can find some melody into it by making my own rhythm for it and it sounds pretty good. You could change the last bass note to 3rd fret low E string.

|--------------------------------------------------|
|---3---3----3----3----3---3----3----3---------|
|----2---2----2----2----2----2----2----2--------|
|-0---0--------------------------------------------|
|-----------3----3-----------------------------|
|----------------------1----1-----3-----3---------|
Or, to open E.

|--------------------------------------------------|
|---3---3----3----3----3---3----3----3---------|
|----2---2----2----2----2----2----2----2--------|
|-0---0--------------------------------------------|
|-----------3----3-----------------------------|
|----------------------1----1-----0-----0---------|
But I shouldn't be changing the melody, It's not my song.
Honestly, considering this isn't something I would do in my style of music, I wouldn't use it but for a rock song it'll probably work out.

DeepSilentGhost
11-09-2005, 01:08 PM
Sounds pretty decent to me the way it is, sounds like a song i cant out my finger on...

See You Soon
11-12-2005, 06:44 PM
Kinda sounds like sweet home alabama, but i like it. good job

punk||conformed
11-12-2005, 07:05 PM
It looks alot like Weathered, By Creed.

nakki
11-25-2005, 10:33 AM
that's good:cheers:

achunkymonkey8u
11-27-2005, 01:22 PM
hmm not too bad, with the rhythm i put it with, it reminded me of December by Collective Soul (since we're trying to peg it)

GNR_Duff_rules
11-29-2005, 09:51 PM
For those of us who are bassists, every thing is fingerpicked.........

I think this is good beat, what's the timing.....