funk/rock riff


PDA

View Full Version : funk/rock riff


MetalDreds09
11-09-2005, 08:34 AM
This is a funk type riff that my brother made yesterday, even though he?s not very good at guitar, I still though it sounded pretty cool.

E------------------------------------------------|
B------------------------------------------------|
G------------------------------------------------|
D-7--7-----7--7-----------7--7-----7--7--xx-12~~-|
A-0--0-----0--0-----9-7---0--0-----0--0--xx-10~~-|
E------8-9------8-9----8-------8-9---------------|
**
The next is a rough draft

E-------------------------------------------------|
B------------------3-3--------------------3p2-3p2-|
G-2-2-----2-2--(2)-2-2---2-2-----2-2--2-2-2---2---|
D-2-2-----2-2--(2)-0-0---2-2-----2-2------0---0---|
A-0-0-----0-0------------0-0-----0-0--------------|
E-----3-4--------------------3-4------------------|
* * *

MetalDreds09
11-10-2005, 10:14 AM
WOW.......77 views and no replies/thoughts?

groove
11-10-2005, 12:36 PM
here's one...

Tortex power
11-11-2005, 12:53 AM
Hmm i like the way its sounds...