Ideas for continuing this Riff


PDA

View Full Version : Ideas for continuing this Riff


DeepSilentGhost
11-09-2005, 12:53 PM
This is a riff i came up with a few days ago, but i cant figure out anything to add to it, if you can think of any ideas or anything, i would be grateful, and also tell me if it sounds any good.

Clean
|--0------------------------------------------------------------------------|
|---------------------------------------------------------------------------|
|----14-16-14-13--14-16-14-13--13-14-13-11----------14-----14-----14-----14-|
|------------------------------------------14-11--11-----11-----11-----11---|-------|
|-----------------------------------------------12-----12-----12-----12-----| |
|--0------------------------------------------------------------------------| |
|2x
|------------------------------------------------------| |
|------------------------------------------------------| |
|--11----11----11----11---------12----12----12----12~--|----------------------------|
|----12----12----12----12-----9------9-----9-----9-----|
|------0-----0-----0-----0--10-----10----10----10------|
|------------------------------------------------------|

|-------------------------------------------------------------------------------|
|-----------------------------------------------------------------------------5-|
|--10----10----10----14----12----10~~----9----9----9----12----10----9~~-----7---|2x
|----12----12----12----12----12-----------10---10---10----10----10--------9-----|
|------0-----0-----0-----0-----0------------0----0----0-----0-----0-----0-------|
|-------------------------------------------------------------------------------|

I was thinking, of adding like an ashes kinda feel to it, ( trivium song ashes ), but cant come up with anything

tamargoguitar
11-09-2005, 01:09 PM
is it on a scale? key?

DeepSilentGhost
11-10-2005, 11:47 AM
i didnt really base on any scale or key, i just strated to play random ****, and this came out of it, i messed around with different ideas for a while, but never got into basing it on scales or anything like that, this i guess is just what happened to come out. By the way its supposed to be played at a medium pace.

groove
11-10-2005, 12:35 PM
ok.............isn't this the bass solo from that metallica guy ?

ToolBass_dude
11-10-2005, 12:37 PM
watch the cunning stunts video and learn the rest of it :D

groove
11-10-2005, 12:40 PM
you wanna say you made it up youreself? because.....yeah?! do you know the band "metallica" ?