I need help with this riff


PDA

View Full Version : I need help with this riff


Tortex power
11-09-2005, 08:34 PM
e|---------------------------------------------------------------------------|
B|---------------------------------------------------------------------------|
G|---------------------------------------------------------------------------|
D|----------------------5----7----------------------5---7------------------------|
A|--------------5---7-----------8------------5---7--------8------------------------|
E|-----5---8--------------------------5---8-------------------------------------|

e|---------------------------------------------------------------------------|
B|---------------------------------------------------------------------------|
G|---------------------------------------------------------------------------|
D|-----7/8/7---------------------------------------------------------------------|
A|-----5/6/5--------------------------------------------------------------------|
E|---------------------------------------------------------------------------|
Play that twice then

e|---------------------------------------------------------------------------|
B|---------------------------------------------------------------------------|
G|---------------------------------------------------------------------------|
D|--------------------5---7-------------------5---7------------------------------|
A|-------------5---7--------8----------5--7---------8~~~--7/----------------|
E|------5---8-------------------5---8---------------------5/----------------|

haines62
11-09-2005, 08:45 PM
what do you need help with??

Psychedelic
11-09-2005, 08:45 PM
.................?

peilun
11-09-2005, 08:49 PM
help in what?
it seems to be a pentatonic scale of a..

TheLastLegacy
11-09-2005, 08:56 PM
if you mean help finishing the riff no one can really do that but you because only you know the tempo and the level of distortion or speed and wut not. If you mean what scale it is it is A minor pentatonic there chief





CHECK OUT THELASTLEGACY'S NEW DEMO!