first tab


PDA

View Full Version : first tab


dethfire
11-10-2005, 04:09 PM
newbie tab, Here is something I made up yesterday, I think it sounds ok, hopefully the tab is right, just try to find your own rythm and pace


----------------------------------------------------------------------------
----------------------------------------------------------------------------
----99-99--9--77--77--7--55--55--5----7--9----------------------------------
---7--7---7--5---5---5--3---3---3----5--7-----------------------------------
----------------------------------------------------------------------------
----------------------------------------------------------------------------


----------------------------------------------------------------------------------
--55555555-----------55555555-----------------------------------------------------
--55555555-----------55555555-----------------------------------------------------
--33333333--22222222-33333333--22222222----------22-44-55-5555555-22-44-55-5555555
------------22222222-----------22222222-22-22-22-22-44-55-5555555-22-44-55-5555555
----------------------------------------33-33-33----------------------------------


------------------------------------------------------------------------------
------------------------------------------------------------------------------
--9-5-7-9-5-7-----------------------------------------------------------------
--9-5-7-9-5-7---------22--22-55-77-99-12--------------------------------------
--7-3-5-7-3-5--55-55--22--22-55-77-99-12--------------------------------------
---------------77-33----------------------------------------------------------


-------------------------------------------------v17---17-15-17-12-15-12-5---
----------------------------------13----13-15-17-----------------------------
-------------------12----12-14-16----16--------------------------------------
----------12-14-15----15-----------------------------------------------------
-12-14-15--------------------------------------------------------------------
-----------------------------------------------------------------------------


-5-8-5-8-7-10-7-10-5-8-5-8-5---5-7-8-7-5-------------------------------------
-----------------------------8-----------7-5---------8-7---8-7---------------
---------------------------------------------5h7-7h9-----9-----9-7-7h9-------
-----------------------------------------------------------------------------
-----------------------------------------------------------------------------
-----------------------------------------------------------------------------


------------------------v17--------------------------------------------------
----------9-11-12-14-15------------------------------------------------------
------7-9--------------------------------------------------------------------
--5h7------------------------------------------------------------------------
-----------------------------------------------------------------------------
-----------------------------------------------------------------------------

^(^.^<)(>^.^)^
11-10-2005, 04:17 PM
Sounds good. I like the solo alot

182bitterstarts
11-12-2005, 12:16 AM
ya it'sreally sweet the intro is really simple but wicked