cool patterns


PDA

View Full Version : cool patterns


dethfire
11-10-2005, 04:39 PM
I just thought these up and I think they sound pretty good


----------------------------------------------13-14-13-12----------------------
--------------------------------13-14-13---14------------13--------------------
------------------13-14-13---14---------15------------------14-13-12-----------
------13-14-13--14--------15----------------------------------------13---------
----14--------15-------------------------------------------------------14------
--15---------------------------------------------------------------------------


--------------11-10-11-10----------------------------------------------------
-----11-10----------------11-------------------------------------------------
--12-------12----------------12----------------------------------------------
-----------------------------------------------------------------------------
-----------------------------------------------------------------------------
-----------------------------------------------------------------------------

whitebluesboy
11-10-2005, 04:47 PM
that sounds like garbage

whitebluesboy
11-10-2005, 04:48 PM
it is a horrible riff but a very useful exercise so I will give you props for that

dethfire
11-10-2005, 04:50 PM
haha what makes it bad? any suggestions? should I just trash it?

coquet
11-10-2005, 04:59 PM
if you play it at the right speed, it kinda sounds like the harry potter theme in places

Tortex power
11-11-2005, 12:56 AM
if you play it at the right speed, it kinda sounds like the harry potter theme in places
:haha it does!

flyingjew34
11-11-2005, 01:20 AM
try to go a little higher pitched. maybe something like this: (u have to play it fast for it to sound good.


--------------------------------------------------------------------19-20-19----22b
-------------------------------------------------17-18-17-------20------------21-----
----------------------------15-16-15--------18------------19-21----------------------
---------13-14-13--------16------------17-19----------------------------------------------
-----14-------------15-17------------------------------------------------------------------
--15-----------------------------------------------------------------------------------------

----------------------------------------------------------------------------------------------------
--------------------------------------------------------------------------------------------------
-----8h9p8------11h12p11--------15h16p15--------18h19p18--------------21h22p21-(21)\
--/9---------9/12---------12/16-------------16/19--------------19/22---------------------
-------------------------------------------------------------------------------------------------------
-----------------------------------------------------------------------------------------------------

this obviously isn't anything special, but hey! nevermind the spaces

182bitterstarts
11-12-2005, 12:09 AM
i think it sounds pretty cool