Real simple acoustic thing


PDA

View Full Version : Real simple acoustic thing


loopdeloop
11-10-2005, 08:40 PM
e|---------------------------------|----------------------------------|
B|---------------------------------|----------------------------------|
G|---------------------------------|----------------------------------|
D|---------2-------2-------2-------|---------3-------3--------3-------|
A|-----2-------2-------2-------2-0-|-----3-------3-------3--------3-2-|
E|-3-3---3---3---3---3---3---3-----|-5-5---5---5---5---5----5---5-----|

e|----------------------------------------------------------------|
B|----------------------------------------------------------------|
G|----------------------------------------------------------------|
D|-xx-0-0--xx-0-0--xx-5-5--xx-3-3--xx-7-7--xx-7-7--xx-5-5--xx-3-3-|
A|-xx-2-2--xx-2-2--xx-5-5--xx-3-3--xx-7-7--xx-7-7--xx-5-5--xx-3-3-|
E|-xx-3-3--xx-3-3--xx-3-3--xx-3-3--xx-5-5--xx-5-5--xx-5-5--xx-5-5-| <- not a messed up chord, that's how you play it



Yes, it's not original. Yes, it's not particularily awesome. Yes, it's only 3 strings. >_>

EDIT:: http://media.putfile.com/Cracka-Please

It also sounds fine a string higher.