Destroy the pictures with words[midi]


PDA

View Full Version : Destroy the pictures with words[midi]


Dashboard89
11-13-2005, 12:20 PM
This is a piano ballad I wrote on powertab. I don't know how to download it as a powertab file thingy though... :( so I'll post the tab thingy and a recording


Gtr I (E A D G B E) - 'piano 1'
Gtr II (E A D G B E) - 'piano 2'
Gtr III (E A D G B E) - 'flute'

Q=98
4/4
Gtr I

|-3-------3-5-7-8-10-12-15-17-20-15-12-10-8-7-5-3-2-0-------5-7-8-5-3-2-0-----|
|---5-3-2---------------------------------------------3---3---------------3-0-|
|-------------------------------------------------------0---------------------|
|-----------------------------------------------------------------------------|
|-----------------------------------------------------------------------------|
|-----------------------------------------------------------------------------|


S S S S S S S S S S S S S S S S S S S S S S S S S S S E Q E E E S S S
|---------------------------------0-3-5-7-8-10-12-15-17-22-28-29-15-12-10-8-----15-|
|-------------------------------3--------------------------------------------------|
|-2-0-------------------------3---------------------------------------------0-3----|
|-----3-0-------------------5------------------------------------------------------|
|---------3-2-0-----------3--------------------------------------------------------|
|---------------3-5-0-2-3----------------------------------------------------------|


Gtr II

|-12-10-8-7-5-3-2-0-------2-3-5-7-8-10--8-10-12-15-----------------------------|
|-------------------3-0-3------------------------------------------------------|
|------------------------------------------------------------------------------|
|----------------------------------------------------5-5-5-5-5-5-5-5-5-5-5-5-5-|
|----------------------------------------------------5-5-5-5-5-5-5-5-5-5-5-5-5-|
|----------------------------------------------------3-3-3-3-3-3-3-3-3-3-3-3-3-|


Gtr I

|-----------------------------------------------------------------------|
|-----------------------------------------------------------------------|
|-------------------------------------------5-----7---------------------|
|-------------------------------5-----7---------------------------------|
|-------------3-----5-----7---------------------------------------------|
|-3-----5---------------------------------------------------------------|
|
| Gtr II
| S S S S S S S S S S S S S S S S S S S S S S S S S S S S S S S S S S S
|-----------------------------------------------------------------------|
|-----------------------------------------------------------------------|
|-----------------------------------------------------------------------|
|-3-3-3-3-3-3-3-3-3-3-3-3-7-7-7-7-7-7-7-7-7-7-7-7-5-5-5-5-5-5-5-5-5-5-5-|
|-3-3-3-3-3-3-3-3-3-3-3-3-7-7-7-7-7-7-7-7-7-7-7-7-5-5-5-5-5-5-5-5-5-5-5-|
|-1-1-1-1-1-1-1-1-1-1-1-1-5-5-5-5-5-5-5-5-5-5-5-5-3-3-3-3-3-3-3-3-3-3-3-|


Gtr II

|------------------------------------13-15------------3-3-0-0-0-5-3-7-3--------|
|---------------------------11-11-11-11-13-11-9-7-5-0-3-3-0-0-0-5-3-7-3--------|
|---------------------9-9-9--9------------------------0-0-0-0-0-0-0-0-0--------|
|-5-------------7-7-7-7-------------------------------0-0-2-2-0-0-0-0-0--------|
|-5-------5-5-5-5-------------------------------------3-3-2-2-0-5-3-7-3--------|
|-3-3-3-3-3-------------------------------------------3-3-0-0-0-5-3-7-3----3-3-|


W
Gtr I
|-----------------------------------------------------------------------
|-----------------------------------------------------------------------
|-----------------------------------------------------------------------
|-----------------------------------------------------------------------
|-----------------------------------------------------------------------
|-----------------------------------------------------------------------
|
| Gtr II
|
|-----------------------------------------------------------------------
|-----------------------------------------------------------------------
|-----------------------------------------------------------------------
|-----------------------------------------------------------------------
|---5-------5-------5-------5-------5-------5-------5-------5-------5---
|-3---3-3-3---3-3-3---3-3-3---3-3-3---3-3-3---3-3-3---3-3-3---3-3-3---3-


Gtr I

|-15-12-10-8-10-12-15-------------------:
|---------------------------------------:
|---------------------------------------:
|---------------------------------------:
|---------------------------------------:
|---------------------------------------:
|
|
|---------------------------------------:
|---------------------------------------:
|---------------------------------------:
|---------------------------------------:
|-----5----------5--------5-------5-----:
|--3-----3-3--3-----3-3-3---3-3-3---3-3-:



|-3-5-7-8-10-12-15-12-----------------:-7-----|
|-------------------------------------:-------|
|-------------------------------------:-------|
|-------------------------------------:-------|
|-------------------------------------:-------|
|-------------------------------------:-------|
|
| S S S S S S S S S S S S S S S S S S S
|-------------------------------------:-------|
|-------------------------------------:-------|
|-------------------------------------:-------|
|-------------------------------------:-------|
|---5---------5---------5-------5-----:---5---|
|-3---3-3--3-----3--3-3---3-3-3---3-3-:-3---3-|


E E E. s s s s s
|-8-10-15--18-20-22-24-28-----------------|
|-----------------------------------------|
|-----------------------------------------|
|-----------------------------------------|
|-----------------------------------------|
|-----------------------------------------|
|

|-----------------------------------------|
|-----------------------------------------|
|-----------------------------------------|
|-----------------------------------------|
|----5------------5---------5-------5-----|
|-3-----3---3--3-----3--3-3---3-3-3---3-3-|


T
Q. Q e
|-15--15-----------------------------|-7-----|
|-13--13-----------------------------|-5-----|
|-13--13-----------------------------|-5-----|
|------------------------------------|-5-----|
|------------------------------------|-------|
|------------------------------------|-------|
|
| S S S S S S S S S S S S S S S S S S S
|------------------------------------|-------|
|------------------------------------|-------|
|------------------------------------|-------|
|------------------------------------|-------|
|------5-------5-------5-------5-----|---5---|
|--3-----3-3-3---3-3-3---3-3-3---3-3-|-3---3-|


H
|-10--------------------------------------------------------------------------------------|
|--8--------------------------------------------------------------------------------------|
|--8--------------------------------------------------------------------------------------|
|--8--------------------------------------------------------------------------------------|
|-----------------------------------------------------------------------------------------|
|-----------------------------------------------------------------------------------------|
|
| Gtr III
| W E E E Q E E E E E E Q E E E E Q Q Q Q Q Q Q Q Q Q E E E E E E Q
|-10---0-2-3-5-7-8-10-7-8-12-15-12-10-12-15-19-22-19-15-12-10-8-5-2-0-20-15-12-10-8-7-5---|
|--8--------------------------------------------------------------------------------------|
|--8--------------------------------------------------------------------------------------|
|--8--------------------------------------------------------------------------------------|
|-----------------------------------------------------------------------------------------|
|-----------------------------------------------------------------------------------------|


Gtr III
Q E S S E S S W
|-3-5-7-8-10-12-17-15-------------------------------------------------------|
|---------------------------------------------------------------------------|
|---------------------------------------------------------------------------|
|---------------------------------------------------------------------------|
|---------------------------------------------------------------------------|
|---------------------------------------------------------------------------|
|
| Gtr II
| <
| S S S S S S S S S S S S S S S S S S S S S S S S S S S S S S S S S S S
|---------------------------------------------------------------------------|
|---------------------------------------------------------------------------|
|---------------------------------------------------------------------------|
|---------------------------------------------------------------------------|
|-------5-----------5-------5-------5-------5-------5-------5-------5-------|
|-3-3-3----3--3--3----3-3-3---3-3-3---3-3-3---3-3-3---3-3-3---3-3-3---3-3-3-|



Duration Legend
---------------


You can listen to it at www.myspace.com/emokidsonritalin

phpn00bf4life
11-13-2005, 05:26 PM
Gtr I (E A D G B E) - 'piano 1'
Gtr II (E A D G B E) - 'piano 2'
Gtr III (E A D G B E) - 'flute'

Q=98
4/4
Gtr I

|-3-------3-5-7-8-10-12-15-17-20-15-12-10-8-7-5-3-2-0-------5-7-8-5-3-2-0-----|
|---5-3-2---------------------------------------------3---3---------------3-0-|
|-------------------------------------------------------0---------------------|
|-----------------------------------------------------------------------------|
|-----------------------------------------------------------------------------|
|-----------------------------------------------------------------------------|


S S S S S S S S S S S S S S S S S S S S S S S S S S S E Q E E E S S S
|---------------------------------0-3-5-7-8-10-12-15-17-22-28-29-15-12-10-8-----15-|
|-------------------------------3--------------------------------------------------|
|-2-0-------------------------3---------------------------------------------0-3----|
|-----3-0-------------------5------------------------------------------------------|
|---------3-2-0-----------3--------------------------------------------------------|
|---------------3-5-0-2-3----------------------------------------------------------|


Gtr II

|-12-10-8-7-5-3-2-0-------2-3-5-7-8-10--8-10-12-15-----------------------------|
|-------------------3-0-3------------------------------------------------------|
|------------------------------------------------------------------------------|
|----------------------------------------------------5-5-5-5-5-5-5-5-5-5-5-5-5-|
|----------------------------------------------------5-5-5-5-5-5-5-5-5-5-5-5-5-|
|----------------------------------------------------3-3-3-3-3-3-3-3-3-3-3-3-3-|


Gtr I

|-----------------------------------------------------------------------|
|-----------------------------------------------------------------------|
|-------------------------------------------5-----7---------------------|
|-------------------------------5-----7---------------------------------|
|-------------3-----5-----7---------------------------------------------|
|-3-----5---------------------------------------------------------------|
|
| Gtr II
| S S S S S S S S S S S S S S S S S S S S S S S S S S S S S S S S S S S
|-----------------------------------------------------------------------|
|-----------------------------------------------------------------------|
|-----------------------------------------------------------------------|
|-3-3-3-3-3-3-3-3-3-3-3-3-7-7-7-7-7-7-7-7-7-7-7-7-5-5-5-5-5-5-5-5-5-5-5-|
|-3-3-3-3-3-3-3-3-3-3-3-3-7-7-7-7-7-7-7-7-7-7-7-7-5-5-5-5-5-5-5-5-5-5-5-|
|-1-1-1-1-1-1-1-1-1-1-1-1-5-5-5-5-5-5-5-5-5-5-5-5-3-3-3-3-3-3-3-3-3-3-3-|


Gtr II

|------------------------------------13-15------------3-3-0-0-0-5-3-7-3--------|
|---------------------------11-11-11-11-13-11-9-7-5-0-3-3-0-0-0-5-3-7-3--------|
|---------------------9-9-9--9------------------------0-0-0-0-0-0-0-0-0--------|
|-5-------------7-7-7-7-------------------------------0-0-2-2-0-0-0-0-0--------|
|-5-------5-5-5-5-------------------------------------3-3-2-2-0-5-3-7-3--------|
|-3-3-3-3-3-------------------------------------------3-3-0-0-0-5-3-7-3----3-3-|


W
Gtr I
|-----------------------------------------------------------------------
|-----------------------------------------------------------------------
|-----------------------------------------------------------------------
|-----------------------------------------------------------------------
|-----------------------------------------------------------------------
|-----------------------------------------------------------------------
|
| Gtr II
|
|-----------------------------------------------------------------------
|-----------------------------------------------------------------------
|-----------------------------------------------------------------------
|-----------------------------------------------------------------------
|---5-------5-------5-------5-------5-------5-------5-------5-------5---
|-3---3-3-3---3-3-3---3-3-3---3-3-3---3-3-3---3-3-3---3-3-3---3-3-3---3-


Gtr I

|-15-12-10-8-10-12-15-------------------:
|---------------------------------------:
|---------------------------------------:
|---------------------------------------:
|---------------------------------------:
|---------------------------------------:
|
|
|---------------------------------------:
|---------------------------------------:
|---------------------------------------:
|---------------------------------------:
|-----5----------5--------5-------5-----:
|--3-----3-3--3-----3-3-3---3-3-3---3-3-:



|-3-5-7-8-10-12-15-12-----------------:-7-----|
|-------------------------------------:-------|
|-------------------------------------:-------|
|-------------------------------------:-------|
|-------------------------------------:-------|
|-------------------------------------:-------|
|
| S S S S S S S S S S S S S S S S S S S
|-------------------------------------:-------|
|-------------------------------------:-------|
|-------------------------------------:-------|
|-------------------------------------:-------|
|---5---------5---------5-------5-----:---5---|
|-3---3-3--3-----3--3-3---3-3-3---3-3-:-3---3-|


E E E. s s s s s
|-8-10-15--18-20-22-24-28-----------------|
|-----------------------------------------|
|-----------------------------------------|
|-----------------------------------------|
|-----------------------------------------|
|-----------------------------------------|
|

|-----------------------------------------|
|-----------------------------------------|
|-----------------------------------------|
|-----------------------------------------|
|----5------------5---------5-------5-----|
|-3-----3---3--3-----3--3-3---3-3-3---3-3-|


T
Q. Q e
|-15--15-----------------------------|-7-----|
|-13--13-----------------------------|-5-----|
|-13--13-----------------------------|-5-----|
|------------------------------------|-5-----|
|------------------------------------|-------|
|------------------------------------|-------|
|
| S S S S S S S S S S S S S S S S S S S
|------------------------------------|-------|
|------------------------------------|-------|
|------------------------------------|-------|
|------------------------------------|-------|
|------5-------5-------5-------5-----|---5---|
|--3-----3-3-3---3-3-3---3-3-3---3-3-|-3---3-|


H
|-10--------------------------------------------------------------------------------------|
|--8--------------------------------------------------------------------------------------|
|--8--------------------------------------------------------------------------------------|
|--8--------------------------------------------------------------------------------------|
|-----------------------------------------------------------------------------------------|
|-----------------------------------------------------------------------------------------|
|
| Gtr III
| W E E E Q E E E E E E Q E E E E Q Q Q Q Q Q Q Q Q Q E E E E E E Q
|-10---0-2-3-5-7-8-10-7-8-12-15-12-10-12-15-19-22-19-15-12-10-8-5-2-0-20-15-12-10-8-7-5---|
|--8--------------------------------------------------------------------------------------|
|--8--------------------------------------------------------------------------------------|
|--8--------------------------------------------------------------------------------------|
|-----------------------------------------------------------------------------------------|
|-----------------------------------------------------------------------------------------|


Gtr III
Q E S S E S S W
|-3-5-7-8-10-12-17-15-------------------------------------------------------|
|---------------------------------------------------------------------------|
|---------------------------------------------------------------------------|
|---------------------------------------------------------------------------|
|---------------------------------------------------------------------------|
|---------------------------------------------------------------------------|
|
| Gtr II
| <
| S S S S S S S S S S S S S S S S S S S S S S S S S S S S S S S S S S S
|---------------------------------------------------------------------------|
|---------------------------------------------------------------------------|
|---------------------------------------------------------------------------|
|---------------------------------------------------------------------------|
|-------5-----------5-------5-------5-------5-------5-------5-------5-------|
|-3-3-3----3--3--3----3-3-3---3-3-3---3-3-3---3-3-3---3-3-3---3-3-3---3-3-3-|

thk me later

Dashboard89
11-13-2005, 05:46 PM
hahha..except it only coded half the freaking song, which is why I didn't do it.

asongforthegirl
11-14-2005, 11:44 AM
hahha..except it only coded half the freaking song, which is why I didn't do it.
nope, it did the whole thing. The CSS or HTML or seomthing is messed up...put your mouse over the code box thing, and scroll down. :)

Dashboard89
11-14-2005, 08:52 PM
ooh okay..well could some one atleast make a comment about the song now?