My first composition


PDA

View Full Version : My first composition


matth05
11-13-2005, 02:44 PM
G Am C D

E|------------------------------------------------------------2-----2-----2-----
B|-3------3------3------1-----1-----1------1-----1-----1--------3-----3-----3---
G|---0------0------0------2-----2-----2------0-----0-----0--------2-----2-----2-
D|-----0------0------0------2-----2-----2------2-----2-----2--0-----------------
A|-2--------------------0------------------3------------------------------------
E|------------------------------------------------------------------------------

G Am D Bm


E|--3-3-0-0-0-0-2-2-2-2-2-2-2-2----
B|--3-3-1-1-1-1-3-3-3-3-3-3-3-3----
G|--0-0-2-2-2-2-2-2-2-2-4-4-4-4----
D|--0-0-2-2-2-2-0-0-0-0-4-4-4-4----
A|--2-2-0-0-0-0---------2-2-2-2----
E|--3-3----------------------------


out of ten and comment? please

##_Guitar-newb
11-13-2005, 02:52 PM
not bad ^

AxeAbuser#2
11-13-2005, 02:56 PM
yeah its sounds ok. nice and simple picking. on the srtumming part i would play the chords G Am7 D BM but thats just me..

Pure_Morning
11-13-2005, 04:22 PM
Simple, sounds ok though. Is there any more to it?

matth05
11-13-2005, 05:02 PM
Thanks for your comments

yeah its sounds ok. nice and simple picking. on the srtumming part i would play the chords G Am7 D BM but thats just me..


it WAS meant to be Am I'll correct that now