Tabbed out song need help on Linking riffs.


PDA

View Full Version : Tabbed out song need help on Linking riffs.


Asomodai
11-13-2005, 08:09 PM
Hey guys. Ive started to write a few prog Tunes at the moment. My biggest problem being too repetitive and linking riffs together musically.

For example this song.

Intro
(Clean)
------4--------4--------5--------5/7\5----4--------4--------4-----------4---
-----4-4--4---5-5--5---5-5--5---5--7\5---4-4--4---4-4--4---4-4--4-5-7-5-4---
----4---44---4---44---4---44---4---6\4--3---33---3---33---4---44--4-4-4-4--- X2
---6--------6--------5--------5----7\5-4--------4--------4--------4---4-4---
----------------------------------------------------------------------------
----------------------------------------------------------------------------

End of 2nd time.
---------------------------------------------\
---4-----4------5-----5----------------------\
--6-6--6-------6-6--6-------4---------4------\ X1
-7---7--7-----7---7--7-----6-6--6----6-6--6--\
4-----4---4--4-----4------7---7--7--7---7--7-\
------------------------4------4---4-----4---\

Transition
(Clean)

---------------------------------
---------------------------------
----2-------2-------2-------2---- X2
---4-4-----3-3-----4-4-----3-3---
--5---5---5---5---5---5---5---5--
-2-----2-2-----2-2-----2-2-----2-


----------
----------
----2----- X1
---4-4----
--5---5---
-2-----2--


Chorus
(Clean)
----------------------------------------------------------
----------------------------------------------------------
-2-222-222-2-4-444-444-4-5-555-555-5/9--9--9--777-555-444- X8
-3-333-333-3-5-555-555-5-7-777-777-7/10-10-10-999-777-555-
-0-000-000-0-0-000-000-0-0-000-000-0----------------------
----------------------------------------------------------
*** *** *** *** *** *** * * ** ** **



----0-----0-----0-----0---
---0-0---0-0---0-0---0-0--
--2---2-4---4-5---5-7---7-
-3-----5-----7-----9------
--------------------------
--------------------------

Verse
(Thumb and Fingers, Clean)
------------------------------------------
------------------------------------------
---9----7---4---5----9----7----10-----9--- X3
-10-10-9-9-5-5-7-7-10-10-9-9-12--12-10-10-
------------------------------------------
------------------------------------------

--------------------------------------------------------------
--------------------------------------------------------------
---9----7---4---5----9----7----10-------9------7---5---4---2-- X1
-10-10-9-9-5-5-7-7-10-10-9-9-12--12---10-10---9-9-7-7-5-5-4-4-
------------------------------------12------10---9---7---5----
--------------------------------------------------------------

Transition
(Clean)

---------------------------------
---------------------------------
----2-------2-------2-------2---- X2
---4-4-----3-3-----4-4-----3-3---
--5---5---5---5---5---5---5---5--
-2-----2-2-----2-2-----2-2-----2-


----------
----------
----2----- X1
---4-4----
--5---5---
-2-----2--


Chorus
(Distorted)

----------------------------------------------------------
----------------------------------------------------------
-2-222-222-2-4-444-444-4-5-555-555-5/9--9--9--777-555-444- X8
-3-333-333-3-5-555-555-5-7-777-777-7/10-10-10-999-777-555-
-0-000-000-0-0-000-000-0-0-000-000-0----------------------
----------------------------------------------------------
*** *** *** *** *** *** * * ** ** **



----0-----0-----0-----0---
---0-0---0-0---0-0---0-0--
--2---2-4---4-5---5-7---7- X1
-3-----5-----7-----9------
--------------------------
--------------------------

Verse
(Distorted)
------------------------------------------
------------------------------------------
---9----7---4---5----9----7----10-----9--- X3
-10-10-9-9-5-5-7-7-10-10-9-9-12--12-10-10-
------------------------------------------
------------------------------------------

--------------------------------------------------------------
--------------------------------------------------------------
---9----7---4---5----9----7----10-------9------7---5---4---2-- X1
-10-10-9-9-5-5-7-7-10-10-9-9-12--12---10-10---9-9-7-7-5-5-4-4-
------------------------------------12------10---9---7---5----
--------------------------------------------------------------

Transition PT1
(Distorted)

---------------------------------
---------------------------------
----2-------2-------2-------2---- X2
---4-4-----3-3-----4-4-----3-3---
--5---5---5---5---5---5---5---5--
-2-----2-2-----2-2-----2-2-----2-


Break
(Distorted)
---------------------
-----------4-444-----
-2-2222-22-6-666-444- X4
-4-4444-44-7-777-666-
-5-5555-55-4-444-777-
-2-2222-22-------444-

Transition

(Distorted)
---------------------------------
---------------------------------
----2-------2-------2-------2---- X2
---4-4-----3-3-----4-4-----3-3---
--5---5---5---5---5---5---5---5--
-2-----2-2-----2-2-----2-2-----2-

----------
----------
----2----- X1
---4-4----
--5---5---
-2-----2--


Chorus
(Distorted)

----------------------------------------------------------
----------------------------------------------------------
-2-222-222-2-4-444-444-4-5-555-555-5/9--9--9--777-555-444- X8
-3-333-333-3-5-555-555-5-7-777-777-7/10-10-10-999-777-555-
-0-000-000-0-0-000-000-0-0-000-000-0----------------------
----------------------------------------------------------
*** *** *** *** *** *** * * ** ** **

Outro
(Distorted)

----------------------------------------------------------------------------------------------------------
----------------------------------------------------------------------------------------------------------
--9--9--9--10-10-10-12-12-12-10-10-10-9--9--9--7-7-7-9-9-9-1010109-9-9-7-7-7-5-5-5-7-7-7-9-9-9-7-7-7-5-5-5 X1
--10-10-10-10-10-10-10-10-10-10-10-10-10-10-10-9-9-9-9-9-9-9-9-9-9-9-9-9-9-9-7-7-7-7-7-7-7-7-7-7-7-7-7-7-7
----------------------------------------------------------------------------------------------------------
----------------------------------------------------------------------------------------------------------
* * * * * * * * * * * * * * * * * * * * * * * * * * * * * *
------------------------------------------------------
------------------------------------------------------
-5-5-5-7-7-7-8-8-8-7-7-7-5-5-5-5-5-5-7-7-7-8-8-8-7-7-7 X2
-6-6-6-6-6-6-6-6-6-6-6-6-6-6-6-5-5-5-5-5-5-5-5-5-5-5-5
------------------------------------------------------
------------------------------------------------------
* * * * * * * * * * * * * * * * * *
---------
---------
---------
-5-5-5-5~
-8-7-5-3~
---------

I use inverted power chords way to much in this song, any help in other chords i potentially could use?

How would i link the song parts together better?

Critique :) Rob