Nice power chord mix!


PDA

View Full Version : Nice power chord mix!


zeppelinator
11-15-2005, 06:21 PM
E
B--3-3-------3-3-----------------
G--3-3-------3-3-----------------
D----------------------------------
A--1-1-------1-1-----------------
E-------0-0-------0-0------------

This is just the beginning but you mostly play the same chord just on different frets
I think the frets are 1-6-3-and 5 and instead of an open E it's an open A.

zeppelinator
11-15-2005, 06:22 PM
What does anyone think? :confused:

wonderboy47
11-15-2005, 06:37 PM
Should it be

e|
B|3
G|3
D|
A|1
E|

or


e|
B|
G|3
D|3
A|1
E|

Because the first one isn't actually a power chord.

Hardin
11-16-2005, 04:29 PM
lol
e|
b| 4
g| 3
d|
a| 1
e|

or

e|
b|
g| 3
d| 3
a| 1
e|

i think
but im a n00b

groove
11-16-2005, 04:37 PM
what is this...

igotabcrich32
11-16-2005, 05:12 PM
no offence, but that was horrible

wonderboy47
11-16-2005, 06:22 PM
lol
e|
b| 4
g| 3
d|
a| 1
e|

or

e|
b|
g| 3
d| 3
a| 1
e|

i think
but im a n00b

It would actually be:
e|
B| 4
G| 3
D| 1
A|
E|

evvo_gc_fan
11-16-2005, 06:41 PM
Code - For The Love Of God, Use The Code!!

Grovermans
11-16-2005, 07:21 PM
Wtf.

zeppelinator
11-18-2005, 11:39 AM
Sorry everyone! The riff is really suppose to be this!
E---------------------------------------------------------------------------------
B---------------------------------------------------------------------------------
G-3-3------3-3------------8-8-------8-8------------5-5-------5-5-----------
D-3-3------3-3------------8-8-------8-8------------5-5-------5-5-----------
A-1-1------1-1------------6-6-------6-6------------3-3-------3-3-----------
E------0-0------0-0-0-0-------0-0-------0-0-0-0-------0-0-------0-0-0-0-

Once again I apologize!

Grovermans
11-18-2005, 01:46 PM
1) use the code
2) make something that actually shows effort

Philosopher1989
11-18-2005, 11:43 PM
/\ agreed. make something that actually shows more than a few milliseconds worth of thought. Now apologize for wasting a few seconds of my life! ^_^

JCShark
11-22-2005, 12:13 PM
yeh it is quite bad

PsychoFreak
11-22-2005, 03:22 PM
Punk Player?

GNR_Duff_rules
11-22-2005, 09:35 PM
Sorry but whats the code?