[TAB] - Tears of chicago


PDA

View Full Version : [TAB] - Tears of chicago


societies_worm
11-19-2005, 05:25 PM
i recorded this it should still be in the original recordings. i thought i would tab it out.




Intro:

-------0------------------------------------
---------3--------3----------1--------------
---0----------0-----0----0-----0-------0----
-----2----------0----------2-------0-----0--X 2
-3----------2----------0-------------2------
---------------------------------3----------


verse 1
This is just the intro in chord form but i dont know
the name of the chords so i will show them once
just strum these a couple of time.

-------------
-3--3--1-----
-0--0--0--0--
-2--0--2--0--
-3--2--0--2--
-x--x-----3--

i guess strum each chord about 5-8 times im not really sure
i have a recording of this in the original recordings section

chorus:

again i dont know the name of these chords


------------------------
-1-(1)--1---0--(0)------
-2-(0)--0---0--(0)--0---
-2-(2)--2---2--(0)--0---X 2
-0-(0)--3---2--(2)--2---
--------------------3---

the notes in paranthesis you strike one time immediately after strumming the chords before it.

repeat verse 1

chorus

intro

verse 1

thats basically the whole song, i recommend listening to it so you can understand the timing
and everything i really dont know how to write that stuff down.

beatlesfan4124
11-19-2005, 08:59 PM
i like it...

good chords, but maybe on the last chord in the first line alternate between that and a G.

groove
11-20-2005, 08:00 AM
wow i like this!