[Tabs, Unknown Genre] Insanity in My Head


PDA

View Full Version : [Tabs, Unknown Genre] Insanity in My Head


GNR_Duff_rules
11-22-2005, 09:25 PM
The name is not definate. It was just to attract attention. This is a simple bass line:

------------19-----19-----17-----17*----17-----17*
----------0-------0------0-------0-------0------0-----
--------0-------0------0-------0-------0------0-------
------0-------0------0-------0-------0------0---------

---------15----15------12-----12*-----12------12*
-------0------0--------0-------0-------0-------0-----
-----0-------0--------0------0-------0-------0-------
---0------0--------0------0-------0--------0---------

It's strumming. Make sure to set all EQ high to get a crisp, clean sound that will define the high notes from the rest of the strumming. The beat is really a [bum-bum dum-da-da-dum] beat. At the 17 and 12 you may want to strum down to up instead on ever other note (mark with *). The guitar riff is the bottom played on guitar's bottom string (no strumming). Then later in my song:

-----------------------------------
----7-7---5----------7-7---5---
----------------7----------------7
-----------------------------------

---------------------------------
--7-7---5----------------------
-------------7---5---3---2---0
---------------------------------

Play the 7757 part fast and the rest the slitest bit slower.

The first riff is cool because techically the bass is playing the bass and guitar part. The secound is cathy if you get it right. There can be other fills and lines, I'll list them later. If you want the lyrics check the song writing forum. Or PM me!

GNR_Duff_rules
11-22-2005, 09:31 PM
I'm sorry about earlier. THis is the corrected Thread.

182bitterstarts
11-26-2005, 12:43 AM
i like the 2 bottom riffs but not so much the top ones

GNR_Duff_rules
11-29-2005, 09:47 PM
while more people read this......

I need good directions for the "code"..................
PM me if you would like to help.