finger exercise


PDA

View Full Version : finger exercise


combat33
11-23-2005, 05:07 AM
FINGER EXERCISE

THERE ARE LOTS OF WAYS TO EXERCISE YOUR FINGER AND TO REACH THE SPEED YOU
WANT LIKE CHROMATIC SCALE,BUT THIS WILL HELP YOU ALOT BECAUSE YOU ARE
STRENGHTENING YOUR FINGER AT THE SAME TIME DOING THE SCALE AS EXERCISE

CMJ SCALE 2 OCTAVE
e|--------------------------------------5--7--8-----------------------|
B|-----------------------------5--6--8--------------------------------|
G|-----------------------5--7-----------------------------------------|
D|--------------5--7--9-----------------------------------------------|
A|-----5--7--8--------------------------------------------------------|
E|--8-----------------------------------------------------------------|


CMJ SCALE RELATED TO Am SCALE: THE SIXTH NOTE OF CMJ SCALE IS THE
A NOTE,SO YOU CAN PLAY THE SCALE USING A AS A ROOT NOTE,
IF YOU PLAY THE A NOTE AS A ROOT THEN YOU ARE NOW PLAYING
THE Am SCALE BASE ON CMJ SCALE.

EXAMPLE: THIS IS AN Am SCALE 2 OCTAVE, IT IS SIMILAR TO CMJ SCALE
BUT DIFFERENT ROOT NOTE, IT STARTS IN THE FIFTH FRET,
E STRING OR THE A NOTE
e|--------------------------------------------5-----------------------|
B|-----------------------------------5--6--8--------------------------|
G|-----------------------------5--7-----------------------------------|
D|--------------------5--7--9-----------------------------------------|
A|-----------5--7--8--------------------------------------------------|
E|--5--7--8-----------------------------------------------------------|
REMEMBER THAT MAJOR SCALE IS RELATED TO MINOR SCALE AND
MINOR SCALE IS RELATED TO MAJOR SCALE

FINGER EXERCISE BASE ON C MAJOR SCALE
EX.1: THIS IS A 4 NOTE SHAPE OF SCALE
e|-------------------------------------------------5---7-5-8-7-10-7-8-|
B|-------------------------------------5---6-5-8-6---8----------------|
G|-----------------------------5---7-5---7----------------------------|
D|-----------------5---7-5-9-7---9------------------------------------|
A|-----5---7-5-8-7---8------------------------------------------------|
E|-8-7---8------------------------------------------------------------|

EX. 2:
e|-------------------------------------------5---7-5-8-7-10-8---------|
B|-------------------------------5---6-5-8-6---8----------------------|
G|-----------------------5---7-5---7----------------------------------|
D|-----------5---7-5-9-7---9------------------------------------------|
A|---7-5-8-7---8------------------------------------------------------|
E|-8------------------------------------------------------------------|

EX. 3:
e|--------------------------------------------------------------------|
B|-------------------------------------------------------------5------|
G|---------------------------------------------5-----5-7---5-7---5-7--|
D|---------------------5-----5-7---5-7-9-5-7-9---7-9-----9------------|
A|---5-7---5-7-8-5-7-8---7-8-----8------------------------------------|
E|-8-----8------------------------------------------------------------|

e|-------------------5-----5-7---5-7-8--------------------------------|
B|-5-6---5-6-8-5-6-8---6-8-----8--------------------------------------|
G|-----7--------------------------------------------------------------|
D|--------------------------------------------------------------------|
A|--------------------------------------------------------------------|
E|--------------------------------------------------------------------|
THESE ARE SOME EXAMPLES OF FINGER EXERCISE BASE ON C MAJOR SCALE
YOU CAN PLAY THIS WITH SOMEOTHER SCALE YOU WANT,
USE THE ASCENDING AND DESCENDING FORMAT.



ANOTHER EXAMPLE OF FINGER EXERCISE BASE ON C MAJOR/Am MINOR SCALE
USING ASCENDING AND DESCENDING FORMAT
EX.1
ASCENDING
e|------------------------------------------------------------------------|
B|------------------------------------------------------------------------|
G|------------------------------------------------------------------------|
D|-----------------------------------------9---------------9-10-12-9-10-12|
A|---------8---------------8-10-12-8-10-12---12-10-8-10-12----------------|
E|-8-10-12---12-10-8-10-12------------------------------------------------|

e|--------------------------------------------------------------------10--|
B|---------------------------------10---------------10-12-13-10-12-13-----|
G|-9---------------9-10-12-9-10-12----12-10-9-10-12-----------------------|
D|---12-10-9-10-12--------------------------------------------------------|
A|------------------------------------------------------------------------|
E|------------------------------------------------------------------------|

e|----------------10-12-13--|
B|-13-12-10-12-13-----------|
G|--------------------------|
D|--------------------------|
A|--------------------------|
E|--------------------------|

DESCENDING
e|-13-12-10----10-12-13-12-10---------------------------------------------|
B|----------13----------------13-12-10-13-12-10---------------------------|
G|----------------------------------------------12-10-12-13-12-10---------|
D|----------------------------------------------------------------12-10-9-|
A|------------------------------------------------------------------------|
E|------------------------------------------------------------------------|

e|------------------------------------------------------------------------|
B|------------------------------------------------------------------------|
G|-12-10-9----9-10-12-10-9------------------------------------------------|
D|---------12--------------12-10-9-12-10-9----9-10-12-10-9----------------|
A|-----------------------------------------12--------------12-10-8-12-10-8|
E|------------------------------------------------------------------------|

e|--------------------------|
B|--------------------------|
G|--------------------------|
D|--------------------------|
A|----8-10-12-10-8----------|
E|-12--------------12-10-8--|

EX.2 C MAJOR SCALE
------------ASCENDING | DESCENDING-----------
e|-------------8--10--12--13--12--10--------------------------------------|
B|--8--10--12-------------------------13--12--10--8-----------------------|
G|------------------------------------------------------------------------|
D|------------------------------------------------------------------------|
A|------------------------------------------------------------------------|
E|------------------------------------------------------------------------|

EX.3
-------------------ASCENDING | DESCENDING-------------------->
e|-----------------------8-10-12-13-12-10---------------------------------|
B|---------------8-10-12------------------14-12-10------------------------|
G|--------7-9-10-----------------------------------12-10-9----------------|
D|-7-9-10--------------------------------------------------12-10-9-7------|
A|------------------------------------------------------------------------|
E|------------------------------------------------------------------------|

EX.4 Am or CMJ
ASCENDING
e|------------------------------------10-12-13----------------------------|
B|---------------------------10-12-13-------------------------------------|
G|--------------------7-9-10----------------------------------------------|
D|-------------7-9-10-----------------------------------------------------|
A|-------5-7-8------------------------------------------------------------|
E|-5-7-8------------------------------------------------------------------|
DESCENDING
e|-17-15-13---------------------------------------------------------------|
B|----------17-15-13------------------------------------------------------|
G|-------------------14-12-10---------------------------------------------|
D|----------------------------14-12-10------------------------------------|
A|-------------------------------------12-10-8----------------------------|
E|---------------------------------------------12-10-8--------------------|

THESE ARE JUST EXAMPLE AND EXERCISES BASE ON SCALE,
MOVE IT IN EVERY POSITION AND DIFFERENT SCALE,
START SLOW UP TO THE HIGHEST TEMPO THAT YOU CAN.
HOPE YOU LIKE IT GOODLUCK? :peace:

lessthanthree
11-23-2005, 05:46 AM
nice, but could you have not used caps, it makes it pretty hard to read.

http://www.synergyfour.net/caps.jpg

tamargoguitar
11-23-2005, 05:59 AM
ya, it was pretty good though

Fleabass5
11-27-2005, 11:24 AM
When u said that the Cmaj scale is related to the Am scale, does that mean that they both are the same scales???

Stealthbass
11-27-2005, 07:49 PM
also, write the article in Courier New it will help with the tabs to be neat, and i agree with lessthanthree^ on the caps lock thing

but good article

GNR LOVE
12-04-2005, 07:15 PM
C Maj. and A minor scale have the same notes so do E min. and G maj. The 6th degree of a Major scale played with the notes of that scale is a minor scale
C maj:C,D,E,F,G,A,B
a min:A,B,C,D,E,F,G,

Rankles
12-06-2005, 06:37 AM
This needs too much work right now, sort out the caps lock thing and repost.

EDIT - Oh, you're dead.