[TAB] clean intro and verse


PDA

View Full Version : [TAB] clean intro and verse


stratman_mjc
11-24-2005, 07:05 PM
This is pretty simple but i think it sounds good.

It's in 6/8 time and all the notes in the first bit are the same length except for the powerchord at the end, which is held. Play it fairly slowly.

The second riff is chords, just figure out the rhythm yourself, but keep it in 6/8 time.

e|------------------|-----------------|------------------|-------------------------|
B|------------------|-----------------|------------------|-------------------------|
G|-------4-----4----|-------4-----4---|-------1----1-----|-------------------------|
D|----6-----6----6--|----4-----4----4-|----2----2-----2--|-2-----------------------|
A|-4----------------|-2---------------|-0----------------|-0-----------------------|
E|------------------|-----------------|------------------|-------------------------|

^INTRO (4 TIMES)

e|--------0--0--0---|-------0--0--0---|---------0--0--0--|----------0--0--0--0-----|
B|--------0--0--0---|-------0--0--0---|---------0--0--0--|----------0--0--0--0-----|
G|-6--6-------------|-4--4------------|-2--2-------------|-2-----------------------|
D|-6--6-------------|-4--4------------|-2--2-------------|-2-----------------------|
A|-4--4-------------|-2--2------------|-0--0-------------|-0-----------------------|
E|------------------|-----------------|------------------|-------------------------|

^VERSE (4 TIMES)
What do you guys think??

peterella
11-24-2005, 07:15 PM
the first bar is ok....

wonderboy47
11-25-2005, 01:43 AM
I liked it. I don't think I played it perfectly because of the 6/8 time, but I thought it was pretty good. The verse kind of reminded me of "Crash into Me" by the Dave Matthews Band, but they're not similar enough for me to call it unoriginal.

stratman_mjc
11-25-2005, 09:34 PM
Cool, thanks for the crit.

The verse is pretty much just the powerchord with the two open strings at the top. I didnt really know how to tab it coz i usually just mix it around a bit, like play all the strings or just the top ones.

I'm hoping to turn this into some kind of song.

wonderboy47
11-25-2005, 11:45 PM
How about giving my tab an honest crit? I have no idea whether it's good or not.
http://www.ultimate-guitar.com/forum/showthread.php?t=286015

stratman_mjc
11-26-2005, 12:06 AM
ok