[Tab] Brutal death metuhl stuff. Need some help.


PDA

View Full Version : [Tab] Brutal death metuhl stuff. Need some help.


zultone
11-26-2005, 02:33 PM
|----------------------------------------------------|G2
|----------------------------------------------------|
|----------------------------------------------------|
|----------------------------------------------------|
|-2-2-2-2-3-4-3-2-3-2-2-2-2-2-2----------------------|
|-2-2-2-2-------------2-2-2-2-2-------2-----1--------|
|-0-0-0-0-------------0-0-0-0-0-3-4-3---3-2---2-1----|
| . . . . ~Trem pick~ . . . . . ~~~~~~~~~~~~~~~~~
|
|----------------------------------------------------|G1
|----------------------------------------------------|
|----------------------------------------------------|
|----------------------------------------------------|
|-2-2-2-2-------------2-2-2-2-2----------------------|
|-2-2-2-2-------------2-2-2-2-2----------------------|
|-0-0-0-0-------------0-0-0-0-0----------------------|
. . . . . . . . .


|------------------------------------------------------|G2
|------------------------------------------------------|
|------------------------------------------------------|
|------------------------------------------------------|
|-2-2-2-2-3-4-3-2-3-2-4-3-2-2-2-2-2--------------------|
|-2-2-2-2-------------------2-2-2-2--------------------|
|-0-0-0-0-------------------0-0-0-0-3-4-3-2-3-2-4-3-2--|
| . . . . ~Trem pick~ . . . . ~~~~~~~~~~~~~~~~~
|
|------------------------------------------------------|G1
|------------------------------------------------------|
|------------------------------------------------------|
|------------------------------------------------------|
|-2-2-2-2-3-4-3-2-3-2-4-3-2-2-2-2-2--------------------|
|-2-2-2-2-------------------2-2-2-2--------------------|
|-0-0-0-0-------------------0-0-0-0-3-4-3-2-3-2-4-3-2--|
. . . . . . . .


|----------------------------------------------------|G2
|----------------------------------------------------|
|----------------------------------------------------|
|----------------------------------------------------|
|-2-2-2-2-3-4-3-2-3-2-2-2-2-2-2----------------------|
|-2-2-2-2-------------2-2-2-2-2-------2-----1--------|
|-0-0-0-0-------------0-0-0-0-0-3-4-3---3-2---2-1----|
| . . . . ~Trem pick~ . . . . . ~~~~~~~~~~~~~~~~~
|
|----------------------------------------------------|G1
|----------------------------------------------------|
|----------------------------------------------------|
|----------------------------------------------------|
|-2-2-2-2-3-4-3-2-3-2-2-2-2-2-2----------------------|
|-2-2-2-2-------------2-2-2-2-2-------2-----1--------|
|-0-0-0-0-------------0-0-0-0-0-3-4-3---3-2---2-1----|
| . . . . ~Trem pick~ . . . . . ~~~~~~~~~~~~~~~~~


|------------------------------------------------------|G2
|------------------------------------------------------|
|------------------------------------------------------|
|------------------------------------------------------|
|-2-2-2-2-3-4-3-2-3-2-4-3-2-2-2-2-2--------------------|
|-2-2-2-2-------------------2-2-2-2--------------------|
|-0-0-0-0-------------------0-0-0-0-3-4-3-2-3-2-4-3-2--|
| . . . . ~Trem pick~ . . . . ~~~~~~~~~~~~~~~~~
|
|------------------------------------------------------|G1
|------------------------------------------------------|
|------------------------------------------------------|
|------------------------------------------------------|
|-2-2-2-2-3-4-3-2-3-2-4-3-2-2-2-2-2--------------------|
|-2-2-2-2-------------------2-2-2-2--------------------|
|-0-0-0-0-------------------0-0-0-0-3-4-3-2-3-2-4-3-2--|
. . . . . . . .

Repeat for intro ^






|------------------------|
|------------------------|
|------------------------|G2 & G1
|------------------------|
|-2-----4-----4-----4/5--|x4
|-2-----2-----2-----2/3--|
|-0-000---000---000------|


|-------------------------------------------------|
|-------------------------------------------------|
|-------------------------------------------------| Bass by itself, then
|-4-0-1-3-0-1-4-0-1-3-0-1-5-0-1-4-0-1-3-0-1-2-0-1-|x2

|-------------------------------------------------|
|-------------------------------------------------|
|-------------------------------------------------|
|-------------------------------------------------| G1
|-------------------------------------------------|
|-------------------------------------------------|
|-4-0-1-3-0-1-4-0-1-3-0-1-5-0-1-4-0-1-3-0-1-2-0-1-|x2
. . . . . . . . . . . . . . . . . . . . . . . .


|------------------------|
|------------------------|
|------------------------|
|------------------------|x2
|-2-----4-----5\4-----4--| G1 & G2
|-2-----2-----3\2-----2--|
|-0-000---000-----0-0----|




|---------------------------------------------------------------|
|---------------------------------------------------------------|
|---------------------------------------------------------------|
|---------------------------------------------------------------|
|---------------------------------------------------------------| G1 & G2
|---------------------------------------------------------------|
|7-0-6-0-5-0-4-0-6-0-5-0-4-0-3-0-5-0-4-0-3-0-2-0-4-0-3-0-2-0-1-0|x1
. . . . . . . . . . . . . . . . . . . . . . . . . . . . . . . .



.... = Palm mute.
G1 = guitar one
G2 = guitar two
~ = Trem pick
/ \ = Slide up/down


But the intro... Some of the notes aren't "In youyr face!" enough. Any suggestions?
http://ultimate-guitar.com/forum/showthread.php?t=285337 There's a crappy recording of kinda how to play it...
In the process of making this thing.

Chubz
11-27-2005, 12:13 PM
NOT BR00TAL ENOUGH!!!!!!!!!

What tuning are you using anyway?
You dont really specify one from what i see

use B tuning >.>

zultone
11-27-2005, 01:25 PM
NOT BR00TAL ENOUGH!!!!!!!!!

What tuning are you using anyway?
You dont really specify one from what i see

use B tuning >.>
B standard, down half a step on a 7 string.