slow riff


PDA

View Full Version : slow riff


madhampster
11-27-2005, 01:48 AM
play PART I slower. play PART II faster. the notes that ring out (~) only let them ring for a second or so. play with clean with chorus if possible. I like criticism

PART I
e|-----------------------------------------------------------------------------
B|----7--------7---------9-------9p7--------7--------7----------3--------3---
G|---------------------6---6~-6----------------------------------------------
D|--8--8~-8---8--8-----------------------8---8~-8---8------4---4~-4---4-
A|6---------------------------------------6--------------------2-----------------
E|-----------------------------------------------------------------------------


e|----------------------------
B|----------------------------
G|----3----------------------
D|--4---4---4--0h2---0h2
A|2-------2-----------0-----
E|----------------------------

PART II
e|--------------------------------------------------------------------------------------
B|--------16----16----------16----16-------------18----18---------18p16--------
G|-------------------------------------------------15----15----15--------------15----
D|-----17----17----17----------17----17-17~------------------17-------------17
A|15~------------------15~----------------------------------------------------------
E|--------------------------------------------------------------------------------------

e|------------------------------------------------------------------------------------------
B|-----16-----16----------------16----16----------18----18-------18~-p16----------16
G|--------------------------------------------------15-----15----15-------------------15---
D|---------17------17-------17----17----17~----------------------------------17-------
A|15~------------------15~--------------------------------------------------------------
E|-------------------------------------------------------------------------------------------