[tab]some random bass stuff


PDA

View Full Version : [tab]some random bass stuff


madbasslover
11-27-2005, 03:10 AM
this is some bass stuff i've written...and stuff. the first one is all tapping, the rest is regular playing. enjoy...unless you hate it. by the way, i play a five string, so if you have a four string, i dunno, just play it on that. for this first one, for every thingy, play it four times, so like, do four of the 10 9 8 ones, four of 11 10 9 ones, so on, so forth




G |-------------------------------
D |----8----9---7---10---------
A |---9---10---8---11----------
E |-10---11---9---12----------
B |-------------------------------

another one (played only on the b string because i have no creativity):


B|-0-2-3-4-2-3-1-2- just repeat as many times as you want

and here's a longer one played on the G and D strings.

G|-5--5-5--5--5-5--5--5-5-5--4--4-4--4--4-4--4--4-4-4--3--3-3--3--3-3--3--3-3-3--2--2-2--2--2-2--2--2-2-2/5 rinse and repeat as many times as you like, then do this:


G|-5--5-5--5--5-5--5--5-5-5--4--4-4--4--4--4-4--4-4--4--3--3-3--3--3-3--3--3-3-3--2--2-2-
D|-0------------------------------0--------------------------------0------------------------------0-------

G|2--2-2--2--2-2-2/5
D|---------------------0

and finally, (this bit sounds best if you strum with a pick or with your fingernails), this part:

G|-5--5-5--5--5-5--5--5-5-5--4--4-4--4--4--4-4--4-4--4--3--3-3--3--3-3--3--3-3-3--2--2-2-
D|-0--0-0--0--0-0--0--0-0-0--0--0-0--0--0--0-0--0-0--0--0--0-0--0--0-0--0--0-0-0--0--0-0-

G|2--2-2--2--2-2-2/5
D|0--0-0--0--0-0-0-0 and as with everything else, repeat as many times as you like.

that's all my bass stuff i feel like showing off right now. sorry if it isn't challenging or anything. i keep it simple since i'm a better player than writer. that's some of my older stuff anyways. my newer stuff has a bit more flare to it, but i don't feel like tabbing it all out right now. it's too late and i'm too lazy. feedback is always welcome, be it positive or negative, so feel free to kiss my ass, rip me a new one, or just do something inbetween.