When we grow older [TAB]


PDA

View Full Version : When we grow older [TAB]


punk||conformed
11-27-2005, 12:25 PM
I'm punk, I admit it. But somehow, I felt the album my band and I put out needed something to show that were not just rebels, and we don't just disrespect society. So this is the last song on the CD., called When we grow older.

There are two guitars, 1 is Clean Electric fingerpicked, and the other is Distorted Electric.

Arpeggio this chord alternatly up and down 8 times, and hold each for a quarter note. Time signature is 4/4 time.

E--0------------------------------------------------------------------------------
B--3------------------------------------------------------------------------------
G--2------------------------------------------------------------------------------
D--0------------------------------------------------------------------------------
A---------------------------------------------------------------------------------
E---------------------------------------------------------------------------------

E--0--2h3--2--------------3p2---------------------------------------------------||
B--3-------2--3p2--3--0h3-----------------------------------------------------*-||
G--2-------2-------4------------------------------------------------------------||
D--0-------2-------4-----------5------------------------------------------------||
A----------0-------2-----------5----------------------------------------------*-||
E------------------------------3------------------------------------------------||

After this is played the first time, drums come in softly.

Drums then cut out for chorus

E--0--0-0--2--2-2-2--2----------2--2-2-2----------------------------------------||
B--3--3-3--3--3-3-3--3----------2--2-2-2--3--3-3-3--3-3-3-3-------------------*-||
G--2--2-2--2--2-2-2--2--2--2-2--2--2-2-2--4--4-4-4--4-4-4-4---------------------||
D--0--0-0--0--0-0-0--0--2--2-2------------4--4-4-4--4-4-4-4--5-5-5-5--5/7-------||
A-----------------------0--0-0------------2--2-2-2--2-2-2-2--5-5-5-5--5/7-----*-||
E------------------------------------------------------------3-3-3-3--3/5-------||

Play verse, drums come back in, then Guitar 2 plays this fill, all 16th notes.

PM|...| |...| |....| |...| |....| |...| |....| |...| |.......|
E---------------------------------------------------------------------------------
B---------------------------------------------------------------------------------
G------7-----7-------------------------------------------------------------------
D--7-7-7-7-7-7------7-----7------5-----5------4-----4------5-5-5-5-5--7-7-7-7-----
A--5-5-5-5-5-5--7-7-7-7-7-7--5-5-5-5-5-5--4-4-4-4-4-4--5-5-5-5-5-5-5--7-7-7-7-----
E---------------5-5-5-5-5-5--3-3-3-3-3-3--2-2-2-2-2-2--3-3-3-3-3-3-3--5-5-5-5-----



Guitar 2 then plays this as the chorus, the entire thing in quarter notes. Then play the fill instead of the last set of powerchords.

E-------------------------------------||------------------------------------------
B------------------------------------*||------------------------------------------
G-7-7-7-7-----------------------------||------------------------------------------
D-7-7-7-7--7-7-7-7--2-2-2-2--5-5-5-5--||-5-5--4-4---------------------------------
A-5-5-5-5--7-7-7-7--2-2-2-2--5-5-5-5-*||-5-5--4-4---------------------------------
E----------5-5-5-5--0-0-0-0--3-3-3-3--||-3-3--2-2---------------------------------

It's not finished. I have in the making a bridge, and a solo. I know that the outro will be the verse repeating to fade. What do you think?