Fingerpicked Riff


PDA

View Full Version : Fingerpicked Riff


hthedinga
11-27-2005, 10:13 PM
Here's a riff I just made up. It's fingerpicked. I use my thumb and index finger while playing it. The rhythm is below the tab. Let me know what you think.


E-----------------------------------
B-7-----7-----7---8-10-8-7-5---5----
G-----------------------------------
D-----------------------------------
A-5---5-----5-----7-9--7-5-4--------
E-----------------------------------

--1---2-&---&-4---1-&--2-&-3---4----

E-----------------------------------
B-3-----3-----3---5-7--5-3-2--------
G-----------------------------------
D-----------------------------------
A-2---2-----2-----0-0--0-0-0---0----
E-----------------------------------

--1---2-&---&-4---1-&--2-&-3---4----

Lacquer_Head
11-28-2005, 05:04 AM
i like it... it's nice :) if thats an intro try and write some more!