[tab] solo riff, chords, messing arround


PDA

View Full Version : [tab] solo riff, chords, messing arround


NovemberRain273
11-30-2005, 12:56 PM
Rhythm (clean/ acoustic)

E||---0----0--0----0--0--0--|--0----0--0----0--0--0--|--0----0--0----0--0--0--|
B||---1----1--1----1--1--0--|--3----3--3----3--3--0--|--0----0--0----0--0--0--|
G||*--2----2--2----2--2--0--|--0----0--0----0--0--0--|--0----0--0----0--0--0--|
D||*--2----2--2----2--2--0--|--2----2--2----2--2--0--|--2----2--2----2--2--0--|
A||---0----0--0----0--0--0--|--3----3--3----3--3--0--|--2----2--2----2--2--0--|
E||-------------------------|------------------------|--0----0--0----0--0-----|



-------------------------||---------------0-----------|--------------0-----------|
--3----3--3----3--3--0---||------------1-----1--------|-----------3-----3--------|
--0----0--0----0--0--0--*||*--------2-----------2-----|--------0-----------0-----|
--0----0--0----0--0--0--*||*-----2-----------------2--|-----2-----------------2--|
--2----2--2----2--2--0---||---0-----------------------|--3-----------------------|
--3----3--3----3--3------||---------------------------|--------------------------|



--------------0-----------|--------------0------------||--0----0--0----0--0--0--|
-----------------0--------|-----------------3---------||--1----1--1----1--1--0--|
-----------0--------0-----|-----------0--------0-----*||--2----2--2----2--2--0--|
--------2--------------2--|--------0--------------0--*||--2----2--2----2--2--0--|
-----2--------------------|-----2---------------------||--0----0--0----0--0--0--|
--0-----------------------|--3------------------------||------------------------|



--0----0--0----0--0--0--|--0----0--0----0--0--0--|------------------------|
--3----3--3----3--3--0--|--0----0--0----0--0--0--|--3----3--3----3--3--0--|
--0----0--0----0--0--0--|--0----0--0----0--0--0--|--0----0--0----0--0--0--|
--2----2--2----2--2--0--|--2----2--2----2--2--0--|--0----0--0----0--0--0--|
--3----3--3----3--3--0--|--2----2--2----2--2--0--|--2----2--2----2--2--0--|
------------------------|--0----0--0----0--0-----|--3----3--3----3--3-----|



--0----0--0----0--0--0--|--0----0--0----0--0--0--|--0----0--0----0--0--0--|
--1----1--1----1--1--0--|--3----3--3----3--3--0--|--0----0--0----0--0--0--|
--2----2--2----2--2--0--|--0----0--0----0--0--0--|--0----0--0----0--0--0--|
--2----2--2----2--2--0--|--2----2--2----2--2--0--|--2----2--2----2--2--0--|
--0----0--0----0--0--0--|--3----3--3----3--3--0--|--2----2--2----2--2--0--|
------------------------|------------------------|--0----0--0----0--0-----|



------------------------|--0----0--0----0--0--0--||
--3----3--3----3--3--0--|--1----1--1----1--1--0--||
--0----0--0----0--0--0--|--2----2--2----2--2--0--||
--0----0--0----0--0--0--|--2----2--2----2--2--0--||
--2----2--2----2--2--0--|--0----0--0----0--0--0--||
--3----3--3----3--3-----|------------------------||


------------------------------------------------------------------------------

Solo

E||-------|------|------|-------||-------|------|------|-------||
B||-------|------|------|-------||-------|------|------|-------||
G||*------|------|------|------*||*------|------|------|------*||
D||*------|------|------|------*||*------|------|------|------*||
A||-------|------|------|-------||-------|------|------|-------||
E||-------|------|------|-------||-------|------|------|-------||



--17----------17--19--20--|--22--20--19----------17----|
--------------------------|--------------22~-----------|
--------------------------|----------------------------|
--------------------------|----------------------------|
--------------------------|----------------------------|
--------------------------|----------------------------|



--20-19-17----19-17-------17----------------------|
-----------20-------20-18----20-18-17-20-18-17----|
-----------------------------------------------19-|
--------------------------------------------------|
--------------------------------------------------|
--------------------------------------------------|



--------------------------------------------------|------------------------|
--18-17-------17----------------------------------|------------------------|
--------19-17----19-17----19-17-------17----------|------------------------|
-----------------------21-------21-19----21-19-17-|--17b-----------19--21--|
--------------------------------------------------|------------------------|
--------------------------------------------------|------------------------|



----------------------------------|---|----------|----------||
----------------------------------|---|----------|----------||
--17------19------21------19------|---|----------|----------||
------21------21------21------21--|---|----------|----------||
----------------------------------|---|----------|----------||
----------------------------------|---|----------|----------||




its not done yet hence why it cuts off, but it was just me messin around, it prob wont be developed more.

Dante's Inferno
11-30-2005, 01:09 PM
Hear?

Btw,

e-string, fret 17 = B-string, fret 22

It's looking good though!

NovemberRain273
11-30-2005, 01:16 PM
umm what do u mean hear?

anyways, i went and tabbed it in gp4 plus it has a midi.

Dante's Inferno
11-30-2005, 01:30 PM
It's hard to judge by trying play yourself without knowing the melody. And Powertab doesn't work on my mac :(

NovemberRain273
11-30-2005, 01:34 PM
well i added the midi right there so u can check out how it should sound. i know what u mean about hard to get the melody.

Dante's Inferno
11-30-2005, 03:17 PM
Holy ****, you're good man. Both the rhythm and lead are outstanding. Keep on going. Abrupt ending maybe, but that doesn't matter. Endings can be real hard. I think if you use 22 instead of 17, you can get that one-finger-per-fret formation, making it easier to play. It's so unneccessary to move the hand so much. But yeah, really good.

n00blet
11-30-2005, 03:26 PM
ye nice work ! seems pretty groovy :) if u have time check out mine :) http://www.ultimate-guitar.com/forum/showthread.php?t=287769 .
EDIT: i like the solo as well simple but fitting maybe doesnt need to end so abruptly (the solo as well as the ending)

Andrewbiles
11-30-2005, 04:12 PM
What you have so far sounds good. I didn't look at the full tab as I like to see if there's MIDI files now, so I was kind of expecting to see the solo go from the start, but where you put it worked extremely well. It did end quite abruptly, I reckon you should put a bent note in there to fade out for the time being and you can always go back and delete it or just add onto it. Good stuff.
:cheers:

NovemberRain273
12-01-2005, 12:05 AM
ya it ends so abruptly cuz im not finished with it. i was working on it and got some writers block, so i just left it for the time being. ill work on it later.

thanks for all the reviews!

ethereal sin
12-01-2005, 01:03 PM
Dude, that was really good, seriously. But when you play the arpeggios you should let them ring out. It would sound better. Other than that it was really good.

NovemberRain273
12-01-2005, 01:16 PM
^ its in GP4 so if i let them ring it sounds real nasty. but on real guitar its gd.

ethereal sin
12-01-2005, 01:17 PM
Ah, I see.

FlyingBeerman
12-01-2005, 09:25 PM
Instead of just playing the bass note at the start of the finger-picking, you might consider strumming the entire chord, and letting that ring out while you play the rest of the notes. That way the sudden switch from strumming to finger-picking isn't so jarring. Intro sounded great. Solo seemed a bit out of place.

NovemberRain273
12-02-2005, 12:02 AM
well i updated, theres really no continuation since i dont know where to go from there, but i used ur^ playing the whole chord idea and i made them all ring. i added drums and bass so it adds alot to the song.

Slash_died26
12-03-2005, 01:31 AM
really really good

Hardin
12-03-2005, 07:49 PM
It's beautiful, I'm in love with it, if that was a woman i'd be all over her

xdespairfactor
12-03-2005, 07:51 PM
its simple but i like it.

Zeppelin08
12-03-2005, 11:03 PM
That's pretty sweet the solo is nice, keep working on it

Muppet
12-04-2005, 01:28 PM
The solo is pretty nice.

mrbounce
12-07-2005, 11:37 PM
Letting it ring doesn't sound that bad in GP4, if you manually use the linking tool to make each fret line last until the end of the bar.

NovemberRain273
12-07-2005, 11:47 PM
i have it set to let ring in the second zip file. ya it doesnt sound as bad as i thought