acoustic song


PDA

View Full Version : acoustic song


groove
11-30-2005, 02:17 PM
he! this is what i made up a couple of hours ago, tell me what you think...I think its ok!

ps. dont play it to fast!

E ------------3--------
B ---------------0-----
G -------0---------------- 2 x
D -----2---2--------------
A ---3---------------------
E --------------------------

E -------------------0--------------
B -------------0-------3------------
G -------0-------0-------0---------
D -----0---0-------0-------------------
A ---2------------------------2~-----
E ---------------------------------------

E -----------------------------------------------------------
B ---0h1--------1--------3--------1---------0------------
G ---------0--------0--------0-------0---------0---------
D ------------2--------2--------1-------2-----------------
A ---0-------------------------------------------------------
E ------------------------------------------------------------

E ---------------------------------------------------
B -------------------0--------3--------0~-------
G ----------0----------0--------0---------------
D -------------0----------0--------0------------
A ------2---------2---------------------------------
E ---3-----------------------------------------------


E --------------------------- ---------------------------------------------------
B ---1---1---1---111133331111- ---3---3---3----333333333333--------------
G ---0---0---0---000000000000- ---0---0---0----000000000000--------------
D ---2---2---2---222222222222- ---0---0---0----000000000000--------------
A ---3---3---3---333333333333- ---2---2---2----222222222222-------------
E ---------------------------- ---------------------------------------------------
^ v ^ ^ v ^

E ----------------------------- ---3---3---3----333333333333--------
B ---1---1---1---111133331111- ---0---0---0----000000000000--------
G ---0---0---0---000000000000- ---0---0---0----000000000000--------
D ---2---2---2---222222222222- ---0---0---0----000000000000--------
A ---0---0---0---000000000000- ---2---2---2----222222222222-------
E ----------------------------- ---3---3---3----333333333333-------
^ v ^ ^ v ^

hthedinga
11-30-2005, 04:44 PM
Yeah, it's alright. That D sharp was out of place though. Was it supposed to be an E? Not too shabby. You might like this song I recently posted: http://www.ultimate-guitar.com/forum/showthread.php?t=288058