my second riff


PDA

View Full Version : my second riff


punkrockroxxx
12-04-2005, 02:35 AM
Play fast....
|------------2-0---------------2-0--------------2--0----------2-0-----------------------------------------|
B|------2----------------2------------------2--------------2--------------2-----------2----------2-------|
G|---2----2------------2--2-------------2---2----------2--2----------2---2------2---2------2--2-------|
D|--------------------------------------0---------------0-------------4-----------2----------0--------|
A|-0---------------0-------------------------------------------------------------------------------------|
E|----------------------------------------------------------------------------------------------------------|

|-------------------------------------------------------------------------------------------------------------|
B|---------2-------------------------------------------------------------------------------------------------------------|
G|-----2-------------------------------------------------------------------------------------------------------|
D|--0----------------------------------------------------------------------------------4------222222222-------------------------|
A|------------22222222222222-4-55555555555555-2222222222222----------------------------------------------------------------------|
E|---------------------------------------------------------------------------------------------------------------------------------------|

Glory_Box
12-04-2005, 07:45 AM
learn to use the code dude, there's no way that can be read

tab here

xdespairfactor
12-04-2005, 09:29 AM
teach me how to use code, i acutally have no idea.

182bitterstarts
12-04-2005, 10:11 PM
[code][code/] around what u wanna put in code (the first one at the top and the second one at the bottom

Phreakdawg
12-04-2005, 11:00 PM
|------------2-0---------------2-0--------------2--0----------2-0-----------------------------------------|
B|------2----------------2------------------2--------------2--------------2-----------2----------2-------|
G|---2----2------------2--2-------------2---2----------2--2----------2---2------2---2------2--2-------|
D|--------------------------------------0---------------0-------------4-----------2----------0--------|
A|-0---------------0-------------------------------------------------------------------------------------|
E|----------------------------------------------------------------------------------------------------------|

|-------------------------------------------------------------------------------------------------------------|
B|---------2-------------------------------------------------------------------------------------------------------------|
G|-----2-------------------------------------------------------------------------------------------------------|
D|--0----------------------------------------------------------------------------------4------222222222-------------------------|
A|------------22222222222222-4-55555555555555-2222222222222----------------------------------------------------------------------|
E|---------------------------------------------------------------------------------------------------------------------------------------|