Familiar riff


PDA

View Full Version : Familiar riff


Muppet
12-04-2005, 01:40 PM
Hey, I was playing some powerchords and stuff and this is what came out. I think it's pretty sweet, but I think it sounds familiar. Here goes:



|---------------------------------------------------------|
|---------------------------------------------------------|
|---------------------------------------------------------|
|-7-75-77/9-7775-77/9-----------------------------|
|-5-53-55/7-5553-55/7-5-53-55/7-5553-55/7-|
|-----------------------------3-31-33/5-3331-33/5-|



This is standard tuning Btw.

Muppet
12-04-2005, 01:41 PM
And why won't it code right?

Dante's Inferno
12-04-2005, 01:46 PM
Because you have to reduce your number of -'s. Here you go:
|-----------------------------------------|
|-----------------------------------------|
|-----------------------------------------|
|-7-75-77/9-7775-77/9---------------------|
|-5-53-55/7-5553-55/7-5-53-55/7-5553-55/7-|
|---------------------3-31-33/5-3331-33/5-|

nosedyve713
12-04-2005, 01:48 PM
sounds kinda ghey to me.

Muppet
12-04-2005, 01:48 PM
Thx dante.

ctb
12-04-2005, 01:51 PM
There isn't alot good about it but its a start.