just something I wrote


PDA

View Full Version : just something I wrote


Phreakdawg
12-04-2005, 10:57 PM
Just a riff thingy I wrote. These are all quarter notes except for the last chord, Q=120.


e----------------------------------------------
b----------------------------------------------
g----------------------------------------------
d----11---11---12---12-----11--11---9----9-----
a--9----9----9----9------9---9----9---9--------
E----------------------------------------------
2x

|------------------------------------|
|------------------------------------|
|------------------------------------|
|--9---9---10---10--9---9---7--7-----|
|7---7---7----7----7---7---7--7------|
|------------------------------------|

2x

|-----------------|-----------------|--------------------|
|-----------------|-----------------|--------------------|
|-----------------|-----------------|----------------3---|
|--6-6-7-7-6-6-4-4|-3-3-4-4-3-4-1-1-|--3-3-4-4-3-3---4---|
|-4-4-4-4-4-4-4-4-|1-1-1-1-1-1-1-1--|-1-1-1-1-1-1----1---|
|-----------------|-----------------|--------------------|

2x

EewokMan33
12-04-2005, 11:08 PM
well i guess everyone isnt born with creativity...

bum_wit_a_git
12-04-2005, 11:08 PM
i like all but the last messure

bum_wit_a_git
12-04-2005, 11:12 PM
ok i was playing it in open a tuning and it sounded better