just a little thing i came up with


PDA

View Full Version : just a little thing i came up with


bassmaniac101
01-09-2006, 08:28 PM
I was messin around and came up with it. i know it ends suddenly but its supposd to lead into somthin , just not sure what. So, tel me what you think


e--------2------2----2---2------2------------4------4-------------2-----2-----2
B----------3------3---------3------3-----------5------5-------------3------3----
G-----2------2-----2--2------2------2--3--4---4------4--3--2------2------2--
D------------------------------------------------------------------------------------
A------------------------------------------------------------------------------------
E------------------------------------------------------------------------------------

Deluxe
01-10-2006, 09:58 AM
e-------2-----2-----2---2-----2-----------4----4-----------2-----2-----2
B---------3-----3---------3-----3-----------5----5-----------3-----3----
G-----2-----2-----2---2-----2-----2--3--4-----4----4--3--2-----2-----2--
D-----------------------------------------------------------------------
A-----------------------------------------------------------------------
E-----------------------------------------------------------------------

Like this?


Anyways, it sounds pretty good. I'd try and mix it up with some string skipping thrown in with it. Maybe turn it into a fingerpicked intro or something. Course that's just my style, which you might not like. :p:

I don't have my guitar with me so I can't add anything to it right now :(

Garb
01-10-2006, 02:56 PM
It sounds pretty good, I do a lot of stuff like this for intro's....I'd suggest adding more than just a D chord up and down the fretboard...Add some other chords and maybe fingerpick... But I 'unno, everything I make is crap, so you can take my advice or not...

*'-'*
01-10-2006, 06:02 PM
My reccommendation would be to change the E major that you slide to, into an E minor, but thats just me.

e|--3------------------4--
B|--5---instead-of--5--
G|--4------------------4--
D|-------------------------
A|--------------------------
E|--------------------------