Intro [Tab]


PDA

View Full Version : Intro [Tab]


*'-'*
01-10-2006, 06:26 PM
This is a little intro i made. obviously, the low parts and highparts are played on seperate guitars.

E|-14p12-14p12-14p12-14p12-15p12-15p12-15p12-15p12-|
B|-------------------------------------------------|
G|-------------------------------------------------|
D|-------------------------------------------------|
A|-------------------------------------------------|
E|-------------------------------------------------|

E|-14p12-14p12-14p12-14p12-15p12-15p12-15p12-15p12-|
B|-------------------------------------------------|
G|-------------------------------------------------|
D|-------------------------------------------------|
A|-------------------------------------------------|
E|-------------------------------------------------|

E|-14p12-14p12-14p12-14p12-15p12-15p12-15p12-15p12-|
B|-------------------------------------------------|
G|-------------------------------------------------|
D|-------------------------------------------------|
A|-4--4--4--4--4--4--4--4--5--5--5--5--5--5--5--5--|
E|-2--2--2--2--2--2--2--2--3--3--3--3--3--3--3--3--|

E|-14p12-14p12-14p12-14p12-15p12-15p12-15p12-15p12-|
B|-------------------------------------------------|
G|-------------------------------------------------|
D|-------------------------------------------------|
A|-4--4--4--4--4--4--4--4--5--5--5--5--5--5--5--5--|
E|-2--2--2--2--2--2--2--2--3--3--3--3--3--3--3--3--|



Any crit appreciated

stars_n_bars
01-10-2006, 06:32 PM
kinda catchy, you can seriously build some good **** off that... in my opinion

a_dogg26
01-13-2006, 03:41 PM
wow-how long did that take?? 3 or 4 hours i bet!!sorry, but my warm-up routine is catchier than.

piquet
01-13-2006, 04:11 PM
...How the hell do you hit the 4,2 in the 2nd part?! Do you have eighty inch fingers???

Edit >> I just realized I made an ass of myself. The 4,2 is for the 2nd guitar... It's ..meh.. In the first part, try having the 2nd guitar do the same as the first, but a note down (instead of 14,15 - do 12,14) with hammers and pulls. You'll get cooler tone and it'll sound faster.

*'-'*
01-13-2006, 06:46 PM
I edited it to make the it 14p12 instead of 14-12

ChurchNSkate
01-13-2006, 07:25 PM
^Uh oh! Big difference. Seriously, don't post EVERY little "riff" that pops into your head. Get some quick scale runs on Em mixed around there, and maybe it'll be a semi-decent start.

SethMegadefan
01-13-2006, 09:33 PM
It's a nice start, I suppose, but it definitely needs to go somewhere because that alone is a bit boring. But it's just a start, I realize, so it has good potential.

FearOfTheDark1
01-15-2006, 12:42 AM
not bad but really easy. need to put some more challenging stuff in their.

King Zeppelin I
01-15-2006, 04:17 AM
You could build off of that, by itself it isn't very good - more like a pull-off excercise, but if you added some other stuff to it, it could be very nice.

SethMegadefan
01-15-2006, 09:37 AM
not bad but really easy. need to put some more challenging stuff in their.
Oh god, I hate it when people say that music needs to be harder to play. If something sounds good, it shouldn't matter how easy it is. I can't understand how people can be so narrow-minded.

aMeRiCaNsTrAt21
01-18-2006, 11:51 PM
^^ Agreed God that annoys me -- back on subject uhhmm its definetely a nice start keep workin on that.. show us the whole song later :) keep it up