finger picking the acoustic


PDA

View Full Version : finger picking the acoustic


guitarplayer00
01-10-2006, 07:12 PM
Hey, this is a tab by a band called I started, called: Fish Tank, (a band that im in)anyways its a pretty good short song.So here it is:

Song--"Lullaby"
Band--Fish Tank
transcribed by Josh Cole

**Tuning** Standard (EADGBe)

Intro (clean)
e-------------------------------------------------------------------------------------
B----3-----3-----3-------3-----3-----3-----3-----3------3------3---------3-----
G------3-----3-------------3-----3------------3-----3--------------3---------3---
D--3-----3-----3-------1-----1-----1----------------------------------------------
A-------------------------------------------3-------3-----3------1-----1--3------3
E-------------------------------------------------------------------------------------

e------------------------------------------------------------------------------------
B----3-----3-----3-------3-----3-----3------3-----3-----3------3---------3-----
G------3-----3-------------3-----3-------------3-----3-------------3---------3---
D--3-----3-----3-------1-----1-----1----------------------------------------------
A-----------------------------------------1-----1-----1---------3------3--1------3
E-------------------------------------------------------------------------------------

Chorus (clean)
e-------------------------------------------------------------------------------------
B----3-----3-----3------3-----3-----3-----3-----3-----3--------3---------3--------
G------3-----3------------3-----3-----------3-----3---------------3---------3--------
D--1-----1-----1------3-----3-----3-----1-----1-----1-------------------------------
A-----------------------------------------------------------------1-----1---3------3----

e------------------------------------------------------------------------------------
B----3-----3-----3------3-----3-----3-----3-----3-----3-------3--------3-------
G------3-----3------------3-----3-----------3-----3--------------3--------3-------
D--1-----1-----1------3-----3-----3-----1-----1-----1---------------------------
A----------------------------------------------------------------3-----3--1-----1--------
E------------------------------------------------------------------------------------

Ending (clean and same as the beggining)
e-------------------------------------------------------------------------------------
B----3-----3-----3-------3-----3-----3-----3-----3------3------3---------3-----
G------3-----3-------------3-----3------------3-----3--------------3---------3---
D--3-----3-----3-------1-----1-----1----------------------------------------------
A-------------------------------------------3-------3-----3------1-----1--3------3
E-------------------------------------------------------------------------------------

e-------------------------------------------------------------------------------------
B----3-----3-----3-------3-----3-----3------3-----3-----3------3---------3-----
G------3-----3-------------3-----3-------------3-----3-------------3---------3---
D--3-----3-----3-------1-----1-----1----------------------------------------------
A-----------------------------------------1-----1-----1---------3------3--1------3
E-------------------------------------------------------------------------------------

Thats it. Thanks!!

PjX71
01-10-2006, 07:19 PM
eh, its ok..
but its pretty much the same thing over and over..