Please dont go [Song Tabs]


PDA

View Full Version : Please dont go [Song Tabs]


leid sepplin
01-10-2006, 11:48 PM
Ok so i made this song to be played with two guitars, one acoustic and one electric playing the same thing. i havent got a solo down yet but ill post later when i get one up. Also this is just the intro(which is slow) and verse(which is fast). i've got the chorous down but ive really got to get to bed. post more tomorrow.

---------3-------------3-----------3-----------3------------------
-------3-------------3-----------3-----------3--------------------
-----0-------------0-----------2-----------0---------------------- X2
------------------------------0-------------------------------------
-----------------3--------------------------------------------------
--3--------------------------------------3-------------------------


---------------------------------------------------------------------------------2---2---2--------
----3------3--3--3--3---3-3---3--3--3--3---3------3--3--3--3---3-3----3---3---3--3-----
---------------------------0-0--------------0--------------------------0-0----2---2---2--0-----
---------------------------0-0--------------0--------------------------0-0----0---0---0--0-----
---------------------------0-0---3--3--3--0--------------------------0-0-----------------0-----
----3------3--3--3--3---0-0--------------0---3------3--3--3--3---0-0-----------------0-----

---------------------------------------------------2------------------------------------
----3------3--3--3--3---3-3---3--3--3--3-----3-3-3-3-3-3-3-3------------------
---------------------------0-0--------------------2-0----0----------------------------
---------------------------0-0----------------- -----0----0----------------------------
---------------------------0-0---3--3--3--3-- -----0-3-0----------------------------
----3------3--3--3--3---0-0----------------- -----0----0-3-3-3-3------------------


Oh and the
---------
---3----
---0----
---0----
---0----
---0----

is just the switch between the chords. it is supposed to be pronounced though! :D

*'-'*
01-11-2006, 06:45 PM
I hope the electric is using a clean tone :)

Thats pretty good, but i'm not sure if i played it write. Is the part where there is the G on the 6th and the D on the 2nd meant to be fingerpicked or are the 3rd, 4th and 5th muted?

I like

leid sepplin
01-11-2006, 09:15 PM
nah pretty much just play all the strings, muting which ones you need to, to get the style you're comfortable with. and yes the electrics on clean!

CmS
01-12-2006, 11:39 AM
Looks like a good clean song. I see why you gave me the fingerpicking comment (seeing as you have to finger pick this). Good job

leid sepplin
01-12-2006, 10:56 PM
Ok so here's the chorous.

l----0-0-0-0-0-0-0-0-0-0-0-0-0-0-0-0--l
l----0-0-0-0-0-0-0-0-1-1-1-1-1-1-1-1--l
l----0-0-0-0-0-0-0-0-0-0-0-0-0-0-0-0--l X2
l----2-2-2-2-2-2-2-2-2-2-2-2-2-2-2-2--l
l----3-3-3-3-3-3-3-3-3-3-3-3-3-3-3-3--l
l----0-0-0-0-0-0-0-0-0-0-0-0-0-0-0-0--l

l----0-0-0-0-0-0-0-0-0-0-0-0-0-0-0-0--l
l----0-0-0-0-0-0-0-0-3-3-3-3-3-3-3-3--l
l----0-0-0-0-0-0-0-0-5-5-5-5-5-5-5-5--l X2
l----4-4-4-4-4-4-4-4-4-4-4-4-4-4-4-4--l
l----5-5-5-5-5-5-5-5-5-5-5-5-5-5-5-5--l
l----0-0-0-0-0-0-0-0-0-0-0-0-0-0-0-0--l


and you stop at the second time tou play the chord on the second bar making it sound like this.
l------0--l
l-----3---l
l----5----l
l---4-----l
l--5------l
l-0-------l

and then just start from the verse! i'll get the solo up soon......

oh and to settle up some fingerpicking things....... my tabs got all wonky, so after the intro all of it should be chords......

GD_GC
01-14-2006, 12:33 PM
sounds a bit like good riddance (same chord shapes) but overall good nice acoustic/ clean song

saddam
01-14-2006, 02:07 PM
nice accoustic song, nothing more to say

please check mine :http://www.ultimate-guitar.com/forum/showthread.php?p=4777312#post4777312

yawn
01-29-2006, 10:39 PM
I'm not fully sure how the rhythm's supposed to be, but it sounds good. The chorus might get a bit repetative, but overal this sounds pleasant :)