My First Strumming Riff


PDA

View Full Version : My First Strumming Riff


Fridge
01-12-2006, 03:49 PM
Hey, well I was bored so I decided to try and write something... I've written a few fingerpicking riffs before but this is my first attempt at a strumming song. All thought out comments and constructive criticisms will be appreciated, thanks.

To listen to a recording of the riff to see how it's played go to: http://www.angelfire.com/mac2/darren



||-----0-----------1-3p1----------3p0-0h3-3-3-3-3-||
||-------1p0h1-3p1-3-----1--1-1-1-1-------1-1-1-1-||
||-2-2-------------2-----2--2-2-2-2-------2-2-2-2-||
||-2---------------------2--2-2-2-2-------2-2-2-2-||
||-0----------------------------------------------||
||------------------------------------------------||

||-0-0-1-1-x-x-1-----------||
||-1-1-1-1-x-x-1-1-1-------||
||-2-2---3-x-x-3-2-2-------||
||-2-2---3-----3-2-2-------||
||-------------------------||
||-------------------3-1-0-||

||-----0h3-3--0h3-3p0-0-3-1-0-||
||-----1---1--1---1---1-0-0-0-||
||-0-0-0---0--0---0---0-0-0-0-||
||-2-2-2---2--2-------2-------||
||-3-3-3---3--3-------3-------||
||----------------------------||

tubab0y
01-12-2006, 07:07 PM
hey, that sounds pretty cool

come crit my mini-song here (http://www.ultimate-guitar.com/forum/showthread.php?t=305427)

groove
01-13-2006, 04:07 AM
hee thats cool!

a_dogg26
01-13-2006, 03:21 PM
sounds cool- kinda starts to sound like the second part of 'pachabels (sp?) canon'- that classical song