cool little riff i put together [tab]


PDA

View Full Version : cool little riff i put together [tab]


tubab0y
01-12-2006, 04:43 PM
play it fairly fast with lots of palm muting. if u do it right it sounds really cool.

99 views. already. wow.

opening

|---------------------------------------------------------|
|---------------------------------------------------------|
|---------------------------------------------------------|
|----333---55-57--222--00-1-2-----------------------------|
|----333---55-57--222--00-1-2-----------------------------|
|----333---55-57--222--00-1-2-----------------------------|

verse

|---------------------------------------------------------|
|---------------------------------------------------------|
|----------77-72--------555-------------------------------|
|----5-55--77-72--5-55--555--2-3--------------------------|
|----5-55--55-50--5-55--333--2-3--------------------------|
|----3-33---------3-33-------0-1--------------------------|

chorus- dont palm mute

|---------------------------------------------------------|
|---------------------------------------------------------|
|-----------------7-777---9-999---5-555-------------------|
|---------5-555---7-777---9-999---5-555---5---------------|
|---------5-555---5-555---7-777---3-333---5---------------|
|-0-2-3---3-333---------------------------3--(2)----------| ()=first repeat only

order so far:

opening x2
verse x2
chorus x2
verse x2
chorus x2

working on a cool solo...

Evian
01-12-2006, 04:58 PM
Decent but nothing i havent heard from a million nu-metal bands.

piquet
01-12-2006, 04:59 PM
Hah, I love playing that! When I first tried it out, I just played the lower E string, and it literally sent a shiver down my spine! I'm curious to see what else you can do with this, as far as leading into bridges, solos, etc.

By the by, if you'd care to critique my work, the link is here (http://www.ultimate-guitar.com/forum/showthread.php?t=305335).

tubab0y
01-12-2006, 05:35 PM
hey thanks. im working on making it into something bigger and better...