New Song (metal) [TAB]


PDA

View Full Version : New Song (metal) [TAB]


*'-'*
01-13-2006, 07:09 PM
this is a song that i decided to write. You'll need three guitars to play this song properly.

Intro/verse1 (guitar 1 ? acoustic)

E|--0-0-00-0-00-1-1-11-1-11-0-0-00-0-00---3-33-3-33--|
B|--1-1-11-1-11-3-3-33-3-33-1-1-11-1-11---0-00-0-00--|
G|--0-0-00-0-00-2-2-22-2-22-2-2-22-2-22-0-0-00-0-00--| x4
D|--2-2-22-2-22-0-0-00-0-00-2-2-22-2-22-0-0-00-0-00--|
A|--3-3-33-3-33-------------0-0-00-0-00-2-2-22-2-22--|
E|--------------------------------------3-3-33-3-33--|

V V VA V VA V V VA V VA V V VA V VA V V VA V VA



Intro/verse1 (guitar 2 ? clean electrtic)

E|---------------------------------------------------|
B|--------------15---------13------------------------|
G|--13----------14---------14------------------------| x4
D|--14----------12---------14-----------12-----------|
A|--15----------------------------------14-----------|
E|--------------------------------------15-----------|


Bridge (guitar 1 ? acoustic)

E|--1-1-1-1-1-1-1-1-0-0-0-0-0-0-0-0--|
B|--1-1-1-1-1-1-1-1-1-1-1-1-1-1-1-1--|
G|--2-2-2-2-2-2-2-2-0-0-0-0-0-0-0-0--| x4
D|--3-3-3-3-3-3-3-3-2-2-2-2-2-2-2-2--|
A|------------------3-3-3-3-3-3-3-3--|
E|-----------------------------------|

V A V A V A V A V A V A V A V A

Bridge (guitar 3 ? distorted Drop C electric) [start quiet and get louder]

D|------------------------|
A|------------------------|
F|------------------------| x4
C|-0h2-0h3-oh2-0h1BU(1/4)-|
G|-0h2-0h3-0h2-0h1BU(1/4)-|
C|-0h2-0h3-0h2-0h1BU(1/4)-|



Thats all I have so far, but its then gonna come in with a Slayer-esque solo, or maybe an harmonic minor solo.

Please crit.

ChurchNSkate
01-13-2006, 07:23 PM
How is this metal? This is crap, no offence. It doesn't fit together. There's a couple basic chords at the beginning, then what seems to be just some random powerchord hammerons!

Why would you write a song about killing hippies in the first place?

Why would you write a metal song in a dropped tuning? Not many metal bands do, and the ones that do, make it up by having gobs of skill and talent. Like Nile. This song has none of that.

ArcherTheVMan
01-13-2006, 08:44 PM
i agree with him above but i dont understand what hes on bout with dropped tunings, loads of metal bands use drop tunings such as trivium (drop d), deftones (tuned down 1 or 2 steps with a 7 strings), black label society (drop b, c, a, d, down 1 or two steps) ozzy (same as last), metallica (e flat, d), guns n roses (thats hard rock but still e flat, drop d), lamb of god (drop d), pantera (pick one thers loads theyv used), strapping young lad (CGCGCE), machine head (2 1/2 steps down [well around that]), slipknot (same as last), meshugga (8 string guitars down a step), soulfly (no idea i kno its low tho)
the list never ends. wher the hell did you get the idea that metal bands barely used drop tunings? more than half of metal bands out ther use drop tunings?!? look for yourself if you dont believe me.

CmS
01-13-2006, 10:55 PM
Why would you want to kill a hippie? ;(

I dont think this fits very well

tony_dyp26
01-14-2006, 01:23 AM
sorry..umm good try

Rankles
01-14-2006, 05:54 AM
Please read the FAQ and only post two threads per week.