Strumming Riff [Tab]


PDA

View Full Version : Strumming Riff [Tab]


Danny818
01-13-2006, 07:58 PM
I came up with this kind of quick. Any good?

e|-----------0-------------------1--------------------1----------------------|
B|----------------1-----------3----3--------------------0--------------------l
G|-------2---------2-------2---------2-----------0-------0------------------|
D|-----2-------------2---0-----------------------------------0---------------|
A|---0-----------------------------------------2------------------------------|
E|-------------------------------------------3--------------------------------|

e|------------0--------------0------------------------------------------------|
B|------------1--------------0-------------------------------------------------|
G|-------0-----------1--------------------------------------------------------|
D|-----2----------------2------------------------------------------------------|
A|---3------------2-----------------------------------------------------------|
E|---------------------------------------------------------------------------|

JMack
01-13-2006, 09:24 PM
use the code to make it easy to read :)
YOUR TAB HERE
i thought it was okay, a little generic. i assume its played fast?

ctb
01-14-2006, 09:13 AM
I like it :D

tony_dyp26
01-14-2006, 02:28 PM
sounds like dont cry.....

FearOfTheDark1
01-15-2006, 04:59 PM
it looks like something i would play. I Like it you should edit and make it in code like everyone tells me i just cant figure out how yet LOL . Look up Thinking Of You and you'll see a similar version of this

JMack
01-15-2006, 10:02 PM
^read my earlier post. i showed exactly how to do it.
:cheers:

WishIHadAGibson
01-15-2006, 11:38 PM
slightly like dont cry, but the G7 stands out, i say make the transition from Dm-G7 like how the transition from Am-Dm. Em would probably alos work better than Emaj