[TAB]Wiki


PDA

View Full Version : [TAB]Wiki


NevermorePsalm
01-13-2006, 08:02 PM
e----------5-4-5-/-9-7-------------------------------------------------7-10-~~
B---5-7-8--------------5-7-5------------------------------7-10---7-10----------
G--6------------------------------------------------7--7-9------9------------------
D-7------------------------------------4-7----4-7-9--9-----------------------------
A---------------------------------5-7-----7----------------------------------------
E-------------------------------7--------------------------------------------------

e-5-7----------------------------------------------------12~~
B-----8-6-5-------------------------7-----------------12------
G------------7-9-----5-7------5-7-9--9-11-13-/-14-13---------
D-----------------6-7----4-5--------------------------------------
A-------------------------------------------------------------------
E-------------------------------------------------------------------

e-17----------14-15-----------------12-/-17~~18-17-15~~~18-17-15------------
B----16----14--------14-----------12--------------------------------16-15-13
G-------15----------------13----13----------------------------------------------------------
D----------------------------14-------------------------------------------------------------
A-----------------------------------------------------------------------------------------------
E-----------------------------------------------------------------------------------------------

e---------------------------
B----------------------------
G-15-14-12-12-/-7~~~
D----------------------------
A----------------------------
E----------------------------

Rough beginning of a song called Wiki. Its played at a relatively fast pace.
Edit: I'm sorry, this code thing is rather quirky, a few parts were missaligned and it would have sounded different. Please, if you have the time check it out again. Thank you for the crit, anything of yours I can crit?

tubab0y
01-13-2006, 09:38 PM
catchy. i like it.

saddam
01-14-2006, 02:13 PM
nice, work on it a little more and you could make a fine solo out of it!

please check my last song : http://www.ultimate-guitar.com/forum/showthread.php?p=4777312#post4777312

NevermorePsalm
01-15-2006, 12:31 AM
I'm thinking of removing those sweeps for something more friendly for the rest of the song
I was hoping to have sort of free form improv break there. But until I powertab it...