Je Suis Non Bon(I Am No Good)[Tab]


PDA

View Full Version : Je Suis Non Bon(I Am No Good)[Tab]


Garb
01-16-2006, 05:31 PM
e|1-1-1-1-0-0-0-0-1-1-1-1-0-0-0-0-1-1-1-1-1---0-0-0-0-0---1-1-1-1-1---0-0-0-0-0--
B|2-2-2-2-2-2-2-2-2-2-2-2-2-2-2-2-2-2-2-2--2--2-2-2-2--2--2-2-2-2--2--2-2-2-2--2-
G|3-3-3-3-3-3-3-3-3-3-3-3-3-3-3-3-3-3-3-3---3-3-3-3-3---3-3-3-3-3---3-3-3-3-3---3
D|-------------------------------------------------------------------------------
A|-------------------------------------------------------------------------------
E|-------------------------------------------------------------------------------

e|1-1-1-1-0-0-0-0-1-1-1-1-0-0-0-0-1-1-1-1-1/5
B|2-2-2-2-2-2-2-2-2-2-2-2-2-2-2-2-2-2-2-2-2/6
G|3-3-3-3-3-3-3-3-3-3-3-3-3-3-3-3-3-3-3-3-3/7
D|3-3-3-3-3-3-3-3-3-3-3-3-3-3-3-3-3-3-3-3-3/7
A|-------------------------------------------
E|-------------------------------------------

e|1-1-1-1-1-1-1-0-0-0-0-0-0-0-1-1-1-1-1-1-1-0-0-0-0-0-0-0-1-1-1-1-1-1-1-0-0-0-0-0-0-0
B|2-2-2-2-2-2-2-2-2-2-2-2-2-2-2-2-2-2-2-2-2-2-2-2-2-2-2-2-2-2-2-2-2-2-2-2-2-2-2-2-2-2
G|3-3-3-3-3-3-3-3-3-3-3-3-3-3-3-3-3-3-3-3-3-3-3-3-3-3-3-3-3-3-3-3-3-3-3-3-3-3-3-3-3-3 x2
D|3-3-3-3-3-3-3-3-3-3-3-3-3-3-3-3-3-3-3-3-3-3-3-3-3-3-3-3-3-3-3-3-3-3-3-3-3-3-3-3-3-3
A|-----------------------------------------------------------------------------------
E|-----------------------------------------------------------------------------------

e|1-1-1-1-1-1-1-1-0-0-0-0-0-0-0-0
B|2-2-2-2-2-2-2-2-2-2-2-2-2-2-2-2
G|3-3-3-3-3-3-3-3-3-3-3-3-3-3-3-3 x2
D|-------------------------------
A|-------------------------------
E|-------------------------------

e|6-6-6-6-6-3-3-3-3-3-6-6-6-6-6-3-3-3-3-3-3-3-3-3-3-3-3-3-3-3
B|4-4-4-4-4-4-4-4-4-4-4-4-4-4-4-4-4-4-4-4-4-4-4-4-4-4-4-4-4-4
G|3-3-3-3-3-3-3-3-3-3-3-3-3-3-3-3-3-3-3-3-3-3-3-3-3-3-3-3-3-3
D|5-5-5-5-5-5-5-5-5-5-5-5-5-5-5-5-5-5-5-5-5-5-5-5-5-5-5-5-5-5
A|3-3-3-3-3-3-3-3-3-3-3-3-3-3-3-3-3-3-3-3-6-6-6-6-6-3-3-3-3-3
E|-----------------------------------------------------------

e|---------------------------------------------------------------------------------------------------------------
B|---------------------------------------------------------------------------------------------------------------
G|---------------------------------------------------------------------------------------------------------------
D|---------------------------------------------------------------------------------------------------------------
A|6-6-6-6-6-6-6-6-6-6-6-6-6-6-6-6-6-6-6-6-6-6-6-6-6-6-6-6-6-6-6-6-6-6-6-6-6-6-6-6-6-6-6-6-6-6-6-6-6-6-6-6-6-6-6-6
E|3-3-3-3-3-3-3-3-2-2-2-2-2-2-2-2-1-1-1-1-1-1-1-1-4-4-4-4-4-4-4-4-3-3-3-3-3-3-3-3-5-5-5-5-5-5-5-5-2-2-2-2-2-2-2-2

e|-----------------------------------------------------------------------------------------------------------------------------------------------------
B|-----------------------------------------------------------------------------------------------------------------------------------------------------
G|-----------------------------------------------------------------------------------------------------------------------------------------------------
D|-----------------------------------------------------------------------------------------------------------------------------------------------------
A|8-8-8-8-8-8-8-8-8-8-8-8-8-8-8-8-8-8-8-8-8-8-8-8-8-8-8-8-8-8-8-8-8-8-8-8-8-8-8-8-8-8-8-8-8-8-8-8-8-8-8-8-8-8-8-8-6-6-6-6-6-6-6-6-6-6-6-6-6-6-6-6-5-5-5
E|5-5-5-5-5-5-5-5-4-4-4-4-4-4-4-4-6-6-6-6-6-6-6-6-3-3-3-3-3-3-3-3-7-7-7-7-7-7-7-7-6-6-6-6-6-6-6-6-5-5-5-5-5-5-5-5-3-3-3-3-3-3-3-3-2-2-2-2-2-2-2-2-1-1-1



As usual, recordin in my info; Je Suis Non Bon.

invisible_man
01-16-2006, 05:46 PM
*je ne suis pas bon

Je Suis Non Bon is a direct translation, but that's just ****ty French.

Evian
01-16-2006, 05:52 PM
Based on the recording, That was pretty bad. I don't know if its your playing, or if it was supposed to be like that but its bad. Also, its just the same thing over for the most part. It's repetitive and boring and the part at the end is horrible. The parts don't really fit together. So work on spicing it up, and work on your playing.

Garb
01-16-2006, 05:57 PM
"Based on the recording, That was pretty bad. I don't know if its your playing, or if it was supposed to be like that but its bad. Also, its just the same thing over for the most part. It's repetitive and boring and the part at the end is horrible. The parts don't really fit together. So work on spicing it up, and work on your playing."

=( It sounds how I wanted it to sound..And if you think about it most(if not all) songs are repititous...Oh well...At least you gave critique.....

And about the French thing, I've only studied it for one semester...I liked I Am No Good better than I Am Not Good... =P

lead_zeppelin
01-16-2006, 05:59 PM
Congratulations!!! You just wrote the worst song ever! :cheers:

peterella
01-16-2006, 06:05 PM
I'm listening to some of your other songs trying not to laugh.:haha

EDIT: :haha:haha the songs are so bad. no offense but like for the one did you just put it out of tune and make up chords?

Evian
01-16-2006, 06:08 PM
"Based on the recording, That was pretty bad. I don't know if its your playing, or if it was supposed to be like that but its bad. Also, its just the same thing over for the most part. It's repetitive and boring and the part at the end is horrible. The parts don't really fit together. So work on spicing it up, and work on your playing."

=( It sounds how I wanted it to sound..And if you think about it most(if not all) songs are repititous...Oh well...At least you gave critique.....

And about the French thing, I've only studied it for one semester...I liked I Am No Good better than I Am Not Good... =P

Yeah but they usually have more then 2 riffs, and they're usually good riffs. Well at least listenable.

Garb
01-16-2006, 06:20 PM
"Yeah but they usually have more then 2 riffs, and they're usually good riffs. Well at least listenable."

Yeah, true...But hey, people told me not to quit guitar even though I suck, oh well...*points at title* Told you all...

"EDIT: the songs are so bad. no offense but like for the one did you just put it out of tune and make up chords?"

Uhh.."the one"...You know theres like 25 there, right?

Night_Lights
01-16-2006, 07:23 PM
you REALLY should learn some theory, to help you write stuff.

Fatt Sorum
01-18-2006, 03:28 AM
note: better french would be: 'Je ne suis pas bon'

*'-'*
01-18-2006, 09:24 PM
In von cra jes sois geh wharh

I think its repetetive, but the riffs aren't as bad as they say