Funky 80's-ish riff


PDA

View Full Version : Funky 80's-ish riff


maddd0g
01-16-2006, 10:35 PM
Get Funky!
Was messing around with some funky riffs I made up and ended up with 5 instruments nicely layered on top of each other.
I think it's pretty cool check it out!
Zip includes midi (with and with out keyboard and guitar 2) and tab in .txt format.

80's funk
110 BPM
All instruments half step down

Guitar 1 (a little dirty)
| | | | | | | | | | | | | | | |
|--------------------------------|--------------------------------|--------------------------------|--------------------------------|
|--------------------------------|--------------------------------|--------------------------------|--------------------------------|
|--------------------------------|--------------------------------|--------------------------------|--------------------------------|
|--------------------------------|--------------------------------|--------------------------------|--------------------------------|
|5---7---5-7---7-----------------|7-5-----------------------------|5---7---5-7---7-----------------|7-5-----------------------------|
|--------------------------------|----7---5---3-------------------|--------------------------------|----7---5---0-------------------|

Bass (Slapped)
| | | | | | | | | | | | | | | |
|--------------------------------|--------------------------------|--------------------------------|--------------------------------|
|--------------------------------|--------------------------------|--------------------------------|--------------------------------|
|5---7---5-7---7-----------------|7-5-----------------------------|5---7---5-7---7-----------------|7-5-----------------------------|
|----------------0---------------|----7---5---3-------------------|----------------0---------------|----7---5---0-------------------|

Drums ([H]i-Hat, [S]nare, [B]ass)
| | | | | | | | | | | | | | | |
H |x---x---x-x---x---------x---x---|x-x-x---x---x-----------x---x---|x---x---x-x---x---------x---x---|x-x-x---x---x-----------x---x---|
S |--------x---------------x---x---|--------x---------------x---x---|--------x---------------x---x---|--------x---------------x---x---|
B |0-------0-------0-------0-------|0-------0-------0-------0-------|0-------0-------0-------0-------|0-------0-------0-------0-------|

Guitar 2 (mute where notated by X under tab)
| | | | | | | | | | | | | | | |
|--------------------------------|--------------------------------|--------------------------------|--------------------------------|
|7/8-8-8-8-8-8-7/8-8-8-8-8-8-8-8-|7/8-8-8-8-8-8-7/8-8-8-8-8-8-8-8-|7/8-8-8-8-8-8-7/8-8-8-8-8-8-8-8-|7/8-8-8-8-8-8-7/8-8-8-8-8-8-8-8-|
|6/7-7-7-7-7-7-6/7-7-7-7-7-7-7-7-|6/7-7-7-7-7-7-6/7-7-7-7-7-7-7-7-|6/7-7-7-7-7-7-6/7-7-7-7-7-7-7-7-|6/7-7-7-7-7-7-6/7-7-7-7-7-7-7-7-|
|5/6-6-6-6-6-6-5/6-6-6-6-6-6-6-6-|5/6-6-6-6-6-6-5/6-6-6-6-6-6-6-6-|5/6-6-6-6-6-6-5/6-6-6-6-6-6-6-6-|5/6-6-6-6-6-6-5/6-6-6-6-6-6-6-6-|
|6/7-7-7-7-7-7-6/7-7-7-7-7-7-7-7-|6/7-7-7-7-7-7-6/7-7-7-7-7-7-7-7-|6/7-7-7-7-7-7-6/7-7-7-7-7-7-7-7-|6/7-7-7-7-7-7-6/7-7-7-7-7-7-7-7-|
|--------------------------------|--------------------------------|--------------------------------|--------------------------------|
X X X X X X X X X X X X X X X X X X X X X X X X

Keyboard (Square Synth Lead) *the 129 is 12-9 (not 1-2-9)*
| | | | | | | | | | | | | | | |
|--------------------------------|--------------------------------|--------------------------------|--------------------------------|
|7-8-8-8-------------------------|--------------------------------|7-8-8-8-------------------------|--------------------------------|
|--------------6-7---7---7---7---|--------------------------------|--------------6-7---7---7---7---|--------------------------------|
|--------------------------------|5-129-5-7-----------------------|--------------------------------|5-129-5-7-----------------------|
|--------------------------------|--------------6-7---7---7---7---|--------------------------------|--------------6-7---7---7---7---|
|--------------------------------|--------------------------------|--------------------------------|--------------------------------|
:cheers:
ZIP FILE BELOW!

ledzep1991
01-16-2006, 10:39 PM
haha thats so sweet...how did u record it?

maddd0g
01-16-2006, 10:44 PM
I wrote it in midi using Tabledit, I didnt record it.

ledzep1991
01-16-2006, 10:47 PM
what is this midi thing? is tabledit free?

maddd0g
01-16-2006, 10:51 PM
Midi is something built into your computer, its kind of like a built in -Lame- synth, Midi files are pretty much just a file to tell the synth what notes ot play so the filesize is much lower than an MP3 or Wav files, but lacks almost any quality what-so-ever.
Tabledit isnt free, i'm using the trail version, I like doodling with little riffs in this more than the PTab editor, because this program has set bars and the option of auto note duration, so I dont have to click on the note duration thing every 2 seconds.

ledzep1991
01-16-2006, 10:54 PM
sick, thanks man

maddd0g
01-17-2006, 08:52 PM
This thread has almost 70 views, and almost no one with any feedback.
C'mon..