Bet YOU can't play this!


PDA

View Full Version : Bet YOU can't play this!


Pr0phecy_X
01-17-2006, 09:33 AM
Alright, before anyone accuses me of trying to prove how good I am thats not why im posting, the well rounded guitarist will get a kick out of trying to place this riff because even I still sometimes foul it up and I practice it daily, I wrote it awhile back and use it to speed exercise.

It is played very fast, cant tell you the bpm but obviously some speed is required.
Give'r a shot and see how good you are :p: And while your at it let me know what you think of the scale.


e:|-----------------------------10------------------------------|
b:|-----------------------10-12----13-12------------------------|
G:|-----------12----11b\9----------------14-13------------------|
D:|------9-10----12----------------------------14-12------------|
A:|----7---------------------------------------------14---------|
E:|--0--------------------------------------------------15-14\12|

e:|---------------------------3---3h5--------------------------------|
b:|-----------------------5-7---3-----5-------7-----7-----9-----9-10b|
G:|-------------------7-9---------------5---7-----7-----9-----9------|
D:|--------------9-10---------------------7-----0-----9-----0--------|
A:|--------10-12-----------------------------------------------------|
E:|--10-12-----------------------------------------------------------|
-
P.H

pentagram_man63
01-17-2006, 09:49 AM
I ACCEPT YOUR CHALLENGE!

First one is a bit tricky I guess... its quite strage.What scale is it?

WTF is up with the second one it sounds all in key up to the 9th note????

BrianApocalypse
01-17-2006, 09:58 AM
I can just about play it at 140, but I figure it's faster than that, huh?

Pr0phecy_X
01-17-2006, 10:05 AM
hmm, Im not sure myself. as far as the last ninth note is concerned, maybe a theory head can help us out.

and 140bpm...hmm, thats just a rough estimate i play it as fast as my brain can send movments to my fingers....I guess I play it at warp speed however fast im playing is a mystery to me but its pretty bloody fast. I'll try to post a recording if I can get my mic working.

MetalDreds09
01-17-2006, 01:59 PM
i stopped at 155bpm, but its pretty good i guess

SsPunk
01-17-2006, 03:51 PM
i got to 163 bpm, and then my hands were to tired to move.

its ok......