[TAB] Slush monkey


PDA

View Full Version : [TAB] Slush monkey


zultone
01-18-2006, 04:30 PM
gcfa#d#gc



|-----------------------------------|
|-----------------------------------|
|---------------------------------P-|
|-2-2-5-6-5-2-2-------2-2-5-6-5-2-A-|
|-2-2-5-6-5-2-2-------2-2-5-6-5-2-U-| x2
|-0-0-3-4-3-0-0-3-4-3-0-0-3-4-3-0-S-|
|---------------------------------E-|
. . .
|--------------------------------------------|
|--------------------------------------------|
|--------------------------------------------|
|-2-2-5/4---7/6---9/8---7/6---5/4---7/6---9/8|
|-2-2-3/2---5/4---7/6---5/4---3/2---5/4---7/6|
|-0-0-----0-----0-----0-----0-----0-----0----|
|--------------------------------------------|
. . . . . . .

|-----------------------------------|
|-----------------------------------|
|---------------------------------P-|
|-2-2-5-6-5-2-2-------2-2-5-6-5-2-A-|
|-2-2-5-6-5-2-2-------2-2-5-6-5-2-U-| x2
|-0-0-3-4-3-0-0-3-4-3-0-0-3-4-3-0-S-|
|---------------------------------E-|
. . .

|-------------------------------------------------------------|
|-------------------------------------------------------------|
|-------------------------------------------------------------|
|-------------------------222------------------------------5-4|
|---------------------222-----222--------------------------3-2|
|-000-222-333-222-000-------------000-222-333-222--000-000----| Palm mute entire riff
|-------------------------------------------------------------|


|-----------------------------------|
|-----------------------------------|
|-----------------------------------|
|---------------------------------P-|
|-2-2-5-6-5-2-2-------2-2-5-6-5-2-A-|
|-2-2-5-6-5-2-2-------2-2-5-6-5-2-U-| x2
|-0-0-3-4-3-0-0-3-4-3-0-0-3-4-3-0-S-|
. . . E

|--------------------------------------------|
|--------------------------------------------|
|--------------------------------------------|
|--------------------------------------------|
|-2-2-5/4---7/6---9/8---7/6---5/4---7/6---9/8|
|-2-2-3/2---5/4---7/6---5/4---3/2---5/4---7/6|
|-0-0-----0-----0-----0-----0-----0-----0----|

. . . . . . .


|-----------------------------------|
|-----------------------------------|
|-----------------------------------|
|---------------------------------P-|
|-2-2-5-6-5-2-2-------2-2-5-6-5-2-A-|
|-2-2-5-6-5-2-2-------2-2-5-6-5-2-U-| x2
|-0-0-3-4-3-0-0-3-4-3-0-0-3-4-3-0-S-|
. . . E

|-------------------------------------------------------------|
|-------------------------------------------------------------|
|-------------------------------------------------------------|
|-------------------------------------------------------------|
|-------------------------222------------------------------5-4|
|---------------------222-----222--------------------------3-2|
|-000-222-333-222-000-------------000-222-333-222--000-000----| Palm mute entire riff


Tuning - G C F A# D# G C


. = Palm mute
/ = Slide

Where it says "Palm mute entire riff", palm mute the whole riff.


http://media.putfile.com/G_fun_heavy Sound clip.