Slow riff


PDA

View Full Version : Slow riff


Infinite-Reason
01-19-2006, 06:02 PM
Had this riff for a while and thought id share it here. Any critisicm is welcome

e|--0--0-0-0-0--3------0--0-0-0-0--5---|
B|--3--3-3-3-3--3------5--5-5-5-5--5---|
G|--2--0-2-0-2--2------4--0-4-0-4--4---|
D|--0--0-0-0-0---------0--0-0-0-0------|
A|-------------------------------------|
E|-------------------------------------|

Play that part 2 or 3 times, i havent decided yet

The second part:
e|--7?------6--------5--------------------------|
B|--7-------6--------5--------------------------|
G|--8-(X4)--8-(X4)---6-(X4)--5------\-7----7/---|
D|--9?------9--------7-------5-(X3)-\-7?---7/---|
A|--7?------6--------5-------5------\-7----7/---|
E|----------------------------------------------|

Pr0phecy_X
01-20-2006, 01:04 AM
Man....those chords are way off and sound terrible together. Sorry