[B]The Darkest riffs feesable.[/B]


PDA

View Full Version : [B]The Darkest riffs feesable.[/B]


Pr0phecy_X
01-20-2006, 01:36 AM
Ive been told this sounds abit like the intro from a slayer song, cant remember wich one please try out the riffs and give me any creative crisitism please and thank you


e:|----------------------------------|
b:|-------------------------8---7----|
G:|------------9----8-----9---9---8--|
D:|-------9-10---10---9-8------------|
A:|----7-----------------------------|
E:|--0-------------------------------|

e:|-----------------------------------------|
b:|-----------------------3-4/8-7---8b--7---|
G:|------------------4/7b---------8-----10--|
D:|--------------5-6------------------------|
A:|------------6----------------------------|
E:|--3--3-3--3------------------------------|

P.M - - - - P.H -

e:|----------------------------------|
b:|------12------12------12------12--|
G:|------15------15------15------15--|
D:|----------------------------------|
A:|----------------------------------|
E:|--000-----000-----000-----000-----|

P.M --- --- --- ---

e:|----------------------------------|
b:|----------------------------------|
G:|----------------------------------|
D:|--------------6-----5-----4-----3-|
A:|------7h8-----7-----6-----6-----3-|
E:|--000-----000---000---000---000---|

P.M --- --- --- --- ---

Pearson
01-20-2006, 01:50 AM
Bmp could help.

ChurchNSkate
01-20-2006, 02:24 AM
^Naw, not really. A recording is what will help. If it sounds good, it'll sound good at just about any speed.

Pr0phecy_X
01-20-2006, 06:42 PM
feel free to play it at any bmp it doesnt matter it sounds good anywho, although common sense would be if you saw three 000 with palm muted noted that it would be triple picking...

take a wild guess please. jesus christ

noobguitarist
01-22-2006, 11:14 AM
i believe that is south of heaven?

Pr0phecy_X
01-22-2006, 05:43 PM
Thats the one, actually i looked at the south of heaven tabs today and I only added a few notes to it, my bad.

noobguitarist
01-23-2006, 08:17 PM
no problem man.it sounds a little better with the extra notes...stealing songs you dirty dirty man thats a big :no: ..j/p its all good im out glad i could help :peace: